  0
SECTION
  2
HEADER
  9
$ACADVER
  1
AC1014
  9
$ACADMAINTVER
 70
     0
  9
$DWGCODEPAGE
  3
ANSI_932
  9
$INSBASE
 10
0.0
 20
0.0
 30
0.0
  9
$EXTMIN
 10
0.0
 20
0.0
 30
0.0
  9
$EXTMAX
 10
472.288962
 20
287.518529
 30
0.0
  9
$LIMMIN
 10
0.0
 20
0.0
  9
$LIMMAX
 10
472.288962
 20
287.518529
  9
$ORTHOMODE
 70
     0
  9
$REGENMODE
 70
     1
  9
$FILLMODE
 70
     1
  9
$QTEXTMODE
 70
     0
  9
$MIRRTEXT
 70
     1
  9
$DRAGMODE
 70
     2
  9
$LTSCALE
 40
1.0
  9
$OSMODE
 70
     0
  9
$ATTMODE
 70
     1
  9
$TEXTSIZE
 40
0.2
  9
$TRACEWID
 40
0.05
  9
$TEXTSTYLE
  7
Standard
  9
$CLAYER
  8
0
  9
$CELTYPE
  6
Continuous
  9
$CECOLOR
 62
   256
  9
$CELTSCALE
 40
1.0
  9
$DELOBJ
 70
     1
  9
$DISPSILH
 70
     0
  9
$DIMSCALE
 40
1.0
  9
$DIMASZ
 40
0.18
  9
$DIMEXO
 40
0.0625
  9
$DIMDLI
 40
0.38
  9
$DIMRND
 40
0.0
  9
$DIMDLE
 40
0.0
  9
$DIMEXE
 40
0.18
  9
$DIMTP
 40
0.0
  9
$DIMTM
 40
0.0
  9
$DIMTXT
 40
0.18
  9
$DIMCEN
 40
0.09
  9
$DIMTSZ
 40
0.0
  9
$DIMTOL
 70
     0
  9
$DIMLIM
 70
     0
  9
$DIMTIH
 70
     1
  9
$DIMTOH
 70
     1
  9
$DIMSE1
 70
     0
  9
$DIMSE2
 70
     0
  9
$DIMTAD
 70
     0
  9
$DIMZIN
 70
     0
  9
$DIMBLK
  1

  9
$DIMASO
 70
     1
  9
$DIMSHO
 70
     1
  9
$DIMPOST
  1

  9
$DIMAPOST
  1

  9
$DIMALT
 70
     0
  9
$DIMALTD
 70
     2
  9
$DIMALTF
 40
25.4
  9
$DIMLFAC
 40
1.0
  9
$DIMTOFL
 70
     0
  9
$DIMTVP
 40
0.0
  9
$DIMTIX
 70
     0
  9
$DIMSOXD
 70
     0
  9
$DIMSAH
 70
     0
  9
$DIMBLK1
  1

  9
$DIMBLK2
  1

  9
$DIMSTYLE
  2
Standard
  9
$DIMCLRD
 70
     0
  9
$DIMCLRE
 70
     0
  9
$DIMCLRT
 70
     0
  9
$DIMTFAC
 40
1.0
  9
$DIMGAP
 40
0.09
  9
$DIMJUST
 70
     0
  9
$DIMSD1
 70
     0
  9
$DIMSD2
 70
     0
  9
$DIMTOLJ
 70
     1
  9
$DIMTZIN
 70
     0
  9
$DIMALTZ
 70
     0
  9
$DIMALTTZ
 70
     0
  9
$DIMFIT
 70
     3
  9
$DIMUPT
 70
     0
  9
$DIMUNIT
 70
     2
  9
$DIMDEC
 70
     4
  9
$DIMTDEC
 70
     4
  9
$DIMALTU
 70
     2
  9
$DIMALTTD
 70
     2
  9
$DIMTXSTY
  7
Standard
  9
$DIMAUNIT
 70
     0
  9
$LUNITS
 70
     2
  9
$LUPREC
 70
     4
  9
$SKETCHINC
 40
0.1
  9
$FILLETRAD
 40
0.0
  9
$AUNITS
 70
     0
  9
$AUPREC
 70
     0
  9
$MENU
  1
acad
  9
$ELEVATION
 40
0.0
  9
$PELEVATION
 40
0.0
  9
$THICKNESS
 40
0.0
  9
$LIMCHECK
 70
     0
  9
$BLIPMODE
 70
     1
  9
$CHAMFERA
 40
0.0
  9
$CHAMFERB
 40
0.0
  9
$CHAMFERC
 40
0.0
  9
$CHAMFERD
 40
0.0
  9
$SKPOLY
 70
     0
  9
$TDCREATE
 40
0.000000000
  9
$TDUPDATE
 40
0.000000000
  9
$TDINDWG
 40
0.0000000000
  9
$TDUSRTIMER
 40
0.0000000000
  9
$USRTIMER
 70
     1
  9
$ANGBASE
 50
0.0
  9
$ANGDIR
 70
     0
  9
$PDMODE
 70
     0
  9
$PDSIZE
 40
0.0
  9
$PLINEWID
 40
0.0
  9
$COORDS
 70
     0
  9
$SPLFRAME
 70
     0
  9
$SPLINETYPE
 70
     6
  9
$SPLINESEGS
 70
     8
  9
$ATTDIA
 70
     0
  9
$ATTREQ
 70
     1
  9
$HANDLING
 70
     1
  9
$HANDSEED
  5
35C
  9
$SURFTAB1
 70
     6
  9
$SURFTAB2
 70
     6
  9
$SURFTYPE
 70
     6
  9
$SURFU
 70
     6
  9
$SURFV
 70
     6
  9
$UCSNAME
  2

  9
$UCSORG
 10
0.0
 20
0.0
 30
0.0
  9
$UCSXDIR
 10
1.0
 20
0.0
 30
0.0
  9
$UCSYDIR
 10
0.0
 20
1.0
 30
0.0
  9
$PUCSNAME
  2

  9
$PUCSORG
 10
0.0
 20
0.0
 30
0.0
  9
$PUCSXDIR
 10
1.0
 20
0.0
 30
0.0
  9
$PUCSYDIR
 10
0.0
 20
1.0
 30
0.0
  9
$USERI1
 70
     0
  9
$USERI2
 70
     0
  9
$USERI3
 70
     0
  9
$USERI4
 70
     0
  9
$USERI5
 70
     0
  9
$USERR1
 40
0.0
  9
$USERR2
 40
0.0
  9
$USERR3
 40
0.0
  9
$USERR4
 40
0.0
  9
$USERR5
 40
0.0
  9
$WORLDVIEW
 70
     1
  9
$SHADEDGE
 70
     3
  9
$SHADEDIF
 70
    70
  9
$TILEMODE
 70
     1
  9
$MAXACTVP
 70
    16
  9
$PINSBASE
 10
0.0
 20
0.0
 30
0.0
  9
$PLIMCHECK
 70
     0
  9
$PEXTMIN
 10
1.000000E+20
 20
1.000000E+20
 30
1.000000E+20
  9
$PEXTMAX
 10
-1.000000E+20
 20
-1.000000E+20
 30
-1.000000E+20
  9
$PLIMMIN
 10
0.0
 20
0.0
  9
$PLIMMAX
 10
12.0
 20
9.0
  9
$UNITMODE
 70
     0
  9
$VISRETAIN
 70
     0
  9
$PLINEGEN
 70
     1
  9
$PSLTSCALE
 70
     0
  9
$TREEDEPTH
 70
  3020
  9
$PICKSTYLE
 70
     1
  9
$CMLSTYLE
  2
Standard
  9
$CMLJUST
 70
     0
  9
$CMLSCALE
 40
1.0
  9
$PROXYGRAPHICS
 70
     0
  9
$MEASUREMENT
 70
     0
  0
ENDSEC
  0
SECTION
  2
CLASSES
  0
CLASS
  1
LWPOLYLINE
  2
AcDbPolyline
  3
"AutoCAD"
 90
        0
280
     0
281
     1
  0
CLASS
  1
IMAGE
  2
AcDbRasterImage
  3
ISM
 90
      127
280
     0
281
     1
  0
CLASS
  1
OLE2FRAME
  2
AcDbOle2Frame
  3
""
 90
        0
280
     0
281
     1
  0
CLASS
  1
HATCH
  2
AcDbHatch
  3
"ACAD_SEDONA"
 90
        0
280
     0
281
     1
  0
CLASS
  1
DICTIONARYVAR
  2
AcDbDictionaryVar
  3
"AutoCAD"
 90
        0
280
     0
281
     0
  0
CLASS
  1
RASTERVARIABLES
  2
AcDbRasterVariables
  3
ISM
 90
        0
280
     0
281
     0
  0
CLASS
  1
IMAGEDEF
  2
AcDbRasterImageDef
  3
ISM
 90
        0
280
     0
281
     0
  0
CLASS
  1
IMAGEDEF_REACTOR
  2
AcDbRasterImageDefReactor
  3
ISM
 90
        1
280
     0
281
     0
  0
CLASS
  1
IDBUFFER
  2
AcDbIdBuffer
  3
"Acad"
 90
        0
280
     0
281
     0
  0
CLASS
  1
SPATIAL_FILTER
  2
AcDbSpatialFilter
  3
"Acad"
 90
        0
280
     0
281
     0
  0
CLASS
  1
XRECORD
  2
AcDbXrecord
  3
"<Built In>"
 90
        0
280
     0
281
     0
  0
CLASS
  1
SORTENTSTABLE
  2
AcDbSortentsTable
  3
"AutoCAD"
 90
        0
280
     0
281
     0
  0
CLASS
  1
LAYER_INDEX
  2
AcDbLayerIndex
  3
"Acad"
 90
        0
280
     0
281
     0
  0
CLASS
  1
SPATIAL_INDEX
  2
AcDbSpatialIndex
  3
"Acad"
 90
        0
280
     0
281
     0
  0
CLASS
  1
OBJECT_PTR
  2
CAseDLPNTableRecord
  3
"ASE-LPNTableRecord"
 90
        1
280
     0
281
     0
  0
CLASS
  1
LAYOUT
  2
AcDbLayout
  3
"AutoCAD 2000"
 90
        0
280
     0
281
     0
  0
CLASS
  1
PLOTSETTINGS
  2
AcDbPlotSettings
  3
"AutoCAD 2000"
 90
        0
280
     0
281
     0
  0
CLASS
  1
ACDBDICTIONARYWDFLT
  2
AcDbDictionaryWithDefault
  3
"AutoCAD 2000"
 90
        0
280
     0
281
     0
  0
CLASS
  1
ACDBPLACEHOLDER
  2
AcDbPlaceHolder
  3
"AutoCAD 2000"
 90
        0
280
     0
281
     0
  0
CLASS
  1
VBA_PROJECT
  2
AcDbVbaProject
  3
"acadvba"
 90
        0
280
     0
281
     0
  0
CLASS
  1
WIPEOUT
  2
AcDbWipeout
  3
WipeOut|AutoCAD Express Tool|expresstools@autodesk.com
 90
      127
280
     0
281
     1
  0
CLASS
  1
WIPEOUTVARIABLES
  2
AcDbWipeoutVariables
  3
WipeOut|AutoCAD Express Tool|expresstools@autodesk.com
 90
        0
280
     0
281
     0
  0
CLASS
  1
RTEXT
  2
RText
  3
RText|AutoCAD Express Tool|expresstools@autodesk.com
 90
        0
280
     0
281
     1
  0
CLASS
  1
ARCALIGNEDTEXT
  2
AcDbArcAlignedText
  3
ATEXT|AutoCAD Express Tool|expresstools@autodesk.com
 90
        0
280
     0
281
     1
  0
ENDSEC
  0
SECTION
  2
TABLES
  0
TABLE
  2
VPORT
  5
7
100
AcDbSymbolTable
 70
     1
  0
VPORT
  5
15
100
AcDbSymbolTableRecord
100
AcDbViewportTableRecord
  2
*ACTIVE
 70
     0
 10
0.0
 20
0.0
 11
1.0
 21
1.0
 12
236.144481
 22
143.759265
 13
0.0
 23
0.0
 14
10.0
 24
10.0
 15
10.0
 25
10.0
 16
0.0
 26
0.0
 36
1.0
 17
0.0
 27
0.0
 37
0.0
 40
287.518529
 41
1.642638
 42
50.0
 43
0.0
 44
0.0
 50
0.0
 51
0.0
 71
     0
 72
   100
 73
     1
 74
     1
 75
     0
 76
     0
 77
     0
 78
     0
  0
ENDTAB
  0
TABLE
  2
LTYPE
  5
4
100
AcDbSymbolTable
 70
    24
  0
LTYPE
  5
11
100
AcDbSymbolTableRecord
100
AcDbLinetypeTableRecord
  2
ByBlock
 70
    64
  3

 72
    65
 73
     0
 40
0.0
  0
LTYPE
  5
12
100
AcDbSymbolTableRecord
100
AcDbLinetypeTableRecord
  2
ByLayer
 70
    64
  3

 72
    65
 73
     0
 40
0.0
  0
LTYPE
  5
13
100
AcDbSymbolTableRecord
100
AcDbLinetypeTableRecord
  2
Continuous
 70
    64
  3
Solid line
 72
    65
 73
     0
 40
0.0
  0
LTYPE
  5
1D
100
AcDbSymbolTableRecord
100
AcDbLinetypeTableRecord
  2
DOT
 70
    64
  3
Dot . . . . . . . . . . . . . . . . . . . . . .
 72
    65
 73
     2
 40
6.35
 49
0.35
 74
     0
 49
-6.0
 74
     0
  0
LTYPE
  5
1E
100
AcDbSymbolTableRecord
100
AcDbLinetypeTableRecord
  2
DASHED
 70
    64
  3
Dashed __ __ __ __ __ __ __ __ __ __ __ __ __ _
 72
    65
 73
     2
 40
12.7
 49
6.35
 74
     0
 49
-6.35
 74
     0
  0
LTYPE
  5
1F
100
AcDbSymbolTableRecord
100
AcDbLinetypeTableRecord
  2
DASHDOT
 70
    64
  3
Dash dot __ . __ . __ . __ . __ . __ . __ . __
 72
    65
 73
     4
 40
25.4
 49
12.7
 74
     0
 49
-6.0
 74
     0
 49
0.7
 74
     0
 49
-6.0
 74
     0
  0
LTYPE
  5
20
100
AcDbSymbolTableRecord
100
AcDbLinetypeTableRecord
  2
DIVIDE
 70
    64
  3
Divide ____ . . ____ . . ____ . . ____ . . ____
 72
    65
 73
     6
 40
31.75
 49
12.7
 74
     0
 49
-6.0
 74
     0
 49
0.875
 74
     0
 49
-6.0
 74
     0
 49
0.875
 74
     0
 49
-6.0
 74
     0
  0
LTYPE
  5
21
100
AcDbSymbolTableRecord
100
AcDbLinetypeTableRecord
  2
HIDDEN
 70
    64
  3
Hidden __ __ __ __ __ __ __ __ __ __ __ __ __ _
 72
    65
 73
     2
 40
9.525
 49
6.35
 74
     0
 49
-3.175
 74
     0
  0
LTYPE
  5
22
100
AcDbSymbolTableRecord
100
AcDbLinetypeTableRecord
  2
CENTER
 70
    64
  3
Center ____ _ ____ _ ____ _ ____ _ ____ _ ____
 72
    65
 73
     4
 40
50.8
 49
31.75
 74
     0
 49
-6.35
 74
     0
 49
6.35
 74
     0
 49
-6.35
 74
     0
  0
LTYPE
  5
23
100
AcDbSymbolTableRecord
100
AcDbLinetypeTableRecord
  2
PHANTOM
 70
    64
  3
Phantom ______  __  __  ______  __  __  ______
 72
    65
 73
     6
 40
63.5
 49
31.75
 74
     0
 49
-6.35
 74
     0
 49
6.35
 74
     0
 49
-6.35
 74
     0
 49
6.35
 74
     0
 49
-6.35
 74
     0
  0
LTYPE
  5
24
100
AcDbSymbolTableRecord
100
AcDbLinetypeTableRecord
  2
ACAD_ISO02W100
 70
    64
  3
ISO dash __ __ __ __ __ __ __ __ __ __ __ __ __
 72
    65
 73
     2
 40
15.0
 49
12.0
 74
     0
 49
-3.0
 74
     0
  0
LTYPE
  5
25
100
AcDbSymbolTableRecord
100
AcDbLinetypeTableRecord
  2
ACAD_ISO03W100
 70
    64
  3
ISO dash space __ __ __ __ __ __ __ __ __ __ __ __ __ __
 72
    65
 73
     2
 40
30.0
 49
12.0
 74
     0
 49
-18.0
 74
     0
  0
LTYPE
  5
26
100
AcDbSymbolTableRecord
100
AcDbLinetypeTableRecord
  2
ACAD_ISO04W100
 70
    64
  3
ISO long-dash dot ____ . ____ . ____ . ____ . _
 72
    65
 73
     4
 40
30.0
 49
24.0
 74
     0
 49
-3.0
 74
     0
 49
0.0
 74
     0
 49
-3.0
 74
     0
  0
LTYPE
  5
27
100
AcDbSymbolTableRecord
100
AcDbLinetypeTableRecord
  2
ACAD_ISO05W100
 70
    64
  3
ISO long-dash double-dot ____ .. ____ .. ____ .
 72
    65
 73
     6
 40
33.0
 49
24.0
 74
     0
 49
-3.0
 74
     0
 49
0.0
 74
     0
 49
-3.0
 74
     0
 49
0.0
 74
     0
 49
-3.0
 74
     0
  0
LTYPE
  5
28
100
AcDbSymbolTableRecord
100
AcDbLinetypeTableRecord
  2
ACAD_ISO06W100
 70
    64
  3
ISO long-dash triple-dot ____ ... ____ ... ____
 72
    65
 73
     8
 40
36.0
 49
24.0
 74
     0
 49
-3.0
 74
     0
 49
0.0
 74
     0
 49
-3.0
 74
     0
 49
0.0
 74
     0
 49
-3.0
 74
     0
 49
0.0
 74
     0
 49
-3.0
 74
     0
  0
LTYPE
  5
29
100
AcDbSymbolTableRecord
100
AcDbLinetypeTableRecord
  2
ACAD_ISO07W100
 70
    64
  3
ISO dot . . . . . . . . . . . . . . . . . . . .
 72
    65
 73
     2
 40
3.0
 49
0.0
 74
     0
 49
-3.0
 74
     0
  0
LTYPE
  5
2A
100
AcDbSymbolTableRecord
100
AcDbLinetypeTableRecord
  2
ACAD_ISO08W100
 70
    64
  3
ISO long-dash short-dash ____ __ ____ __ ____ _
 72
    65
 73
     4
 40
36.0
 49
24.0
 74
     0
 49
-3.0
 74
     0
 49
6.0
 74
     0
 49
-3.0
 74
     0
  0
LTYPE
  5
2B
100
AcDbSymbolTableRecord
100
AcDbLinetypeTableRecord
  2
ACAD_ISO09W100
 70
    64
  3
ISO long-dash double-short-dash ____ __ __ ____
 72
    65
 73
     6
 40
45.0
 49
24.0
 74
     0
 49
-3.0
 74
     0
 49
6.0
 74
     0
 49
-3.0
 74
     0
 49
6.0
 74
     0
 49
-3.0
 74
     0
  0
LTYPE
  5
2C
100
AcDbSymbolTableRecord
100
AcDbLinetypeTableRecord
  2
ACAD_ISO10W100
 70
    64
  3
ISO dash dot __ . __ . __ . __ . __ . __ . __ .
 72
    65
 73
     4
 40
18.0
 49
12.0
 74
     0
 49
-3.0
 74
     0
 49
0.0
 74
     0
 49
-3.0
 74
     0
  0
LTYPE
  5
2D
100
AcDbSymbolTableRecord
100
AcDbLinetypeTableRecord
  2
ACAD_ISO11W100
 70
    64
  3
ISO double-dash dot __ __ . __ __ . __ __ . __ 
 72
    65
 73
     6
 40
33.0
 49
12.0
 74
     0
 49
-3.0
 74
     0
 49
12.0
 74
     0
 49
-3.0
 74
     0
 49
0.0
 74
     0
 49
-3.0
 74
     0
  0
LTYPE
  5
2E
100
AcDbSymbolTableRecord
100
AcDbLinetypeTableRecord
  2
ACAD_ISO12W100
 70
    64
  3
ISO dash double-dot __ . . __ . . __ . . __ . .
 72
    65
 73
     6
 40
21.0
 49
12.0
 74
     0
 49
-3.0
 74
     0
 49
0.0
 74
     0
 49
-3.0
 74
     0
 49
0.0
 74
     0
 49
-3.0
 74
     0
  0
LTYPE
  5
2F
100
AcDbSymbolTableRecord
100
AcDbLinetypeTableRecord
  2
ACAD_ISO13W100
 70
    64
  3
ISO double-dash double-dot __ __ . . __ __ . . 
 72
    65
 73
     8
 40
36.0
 49
12.0
 74
     0
 49
-3.0
 74
     0
 49
12.0
 74
     0
 49
-3.0
 74
     0
 49
0.0
 74
     0
 49
-3.0
 74
     0
 49
0.0
 74
     0
 49
-3.0
 74
     0
  0
LTYPE
  5
30
100
AcDbSymbolTableRecord
100
AcDbLinetypeTableRecord
  2
ACAD_ISO14W100
 70
    64
  3
ISO dash triple-dot __ . . . __ . . . __ . . . 
 72
    65
 73
     8
 40
24.0
 49
12.0
 74
     0
 49
-3.0
 74
     0
 49
0.0
 74
     0
 49
-3.0
 74
     0
 49
0.0
 74
     0
 49
-3.0
 74
     0
 49
0.0
 74
     0
 49
-3.0
 74
     0
  0
LTYPE
  5
31
100
AcDbSymbolTableRecord
100
AcDbLinetypeTableRecord
  2
ACAD_ISO15W100
 70
    64
  3
ISO double-dash double-dot __ __ . . __ __ . . 
 72
    65
 73
    10
 40
39.0
 49
12.0
 74
     0
 49
-3.0
 74
     0
 49
12.0
 74
     0
 49
-3.0
 74
     0
 49
0.0
 74
     0
 49
-3.0
 74
     0
 49
0.0
 74
     0
 49
-3.0
 74
     0
 49
0.0
 74
     0
 49
-3.0
 74
     0
  0
ENDTAB
  0
TABLE
  2
LAYER
  5
2
100
AcDbSymbolTable
 70
     1
  0
LAYER
  5
14
100
AcDbSymbolTableRecord
100
AcDbLayerTableRecord
  2
0
 70
     0
 62
     7
  6
Continuous
  0
ENDTAB
  0
TABLE
  2
STYLE
  5
3
100
AcDbSymbolTable
 70
     4
  0
STYLE
  5
17
100
AcDbSymbolTableRecord
100
AcDbTextStyleTableRecord
  2
Standard
 70
     0
 40
0.0
 41
1.0
 50
0.0
 71
     0
 42
0.0
  3
txt.shx
  4
bigfont.shx
  0
STYLE
  5
32
100
AcDbSymbolTableRecord
100
AcDbTextStyleTableRecord
  2
STANDARD_T
 70
     4
 40
0.0
 41
1.0
 50
0.0
 71
     0
 42
0.0
  3
txt.shx
  4
bigfont.shx
  0
STYLE
  5
33
100
AcDbSymbolTableRecord
100
AcDbTextStyleTableRecord
  2
FontTableH_0
 70
     0
 40
0.0
 41
1.0
 50
0.0
 71
     0
 42
0.0
  3
MS Gothic.ttf
  4

1001
ACAD
1000
MS Gothic
1071
    32817
  0
STYLE
  5
34
100
AcDbSymbolTableRecord
100
AcDbTextStyleTableRecord
  2
FontTableV_0
 70
     0
 40
0.0
 41
1.0
 50
0.0
 71
     0
 42
0.0
  3
@MS Gothic.ttf
  4

1001
ACAD
1000
@MS Gothic
1071
    32817
  0
ENDTAB
  0
TABLE
  2
VIEW
  5
5
100
AcDbSymbolTable
 70
     0
  0
ENDTAB
  0
TABLE
  2
UCS
  5
6
100
AcDbSymbolTable
 70
     0
  0
ENDTAB
  0
TABLE
  2
APPID
  5
8
100
AcDbSymbolTable
 70
     1
  0
APPID
  5
16
100
AcDbSymbolTableRecord
100
AcDbRegAppTableRecord
  2
ACAD
 70
     0
  0
ENDTAB
  0
TABLE
  2
DIMSTYLE
  5
9
100
AcDbSymbolTable
 70
     1
  0
DIMSTYLE
105
18
100
AcDbSymbolTableRecord
100
AcDbDimStyleTableRecord
  2
Standard
 70
     0
  3

  4

  5

  6

  7

 40
1.0
 41
0.18
 42
0.0625
 43
0.38
 44
0.18
 45
0.0
 46
0.0
 47
0.0
 48
0.0
 71
     0
 72
     0
 73
     1
 74
     1
 75
     0
 76
     0
 77
     0
 78
     0
140
0.18
141
0.09
142
0.0
143
25.4
144
1.0
145
0.0
146
1.0
147
0.09
170
     0
171
     2
172
     0
173
     0
174
     0
175
     0
176
     0
177
     0
178
     0
270
     2
271
     4
272
     4
273
     2
274
     2
275
     0
280
     0
281
     0
282
     0
283
     1
284
     0
285
     0
286
     0
287
     0
288
     0
340
17
  0
ENDTAB
  0
TABLE
  2
BLOCK_RECORD
  5
1
100
AcDbSymbolTable
 70
     0
  0
BLOCK_RECORD
  5
A
100
AcDbSymbolTableRecord
100
AcDbBlockTableRecord
  2
*MODEL_SPACE
  0
BLOCK_RECORD
  5
B
100
AcDbSymbolTableRecord
100
AcDbBlockTableRecord
  2
*PAPER_SPACE
  0
ENDTAB
  0
ENDSEC
  0
SECTION
  2
BLOCKS
  0
BLOCK
  5
D
100
AcDbEntity
  8
0
100
AcDbBlockBegin
  2
*MODEL_SPACE
 70
     0
 10
0.0
 20
0.0
 30
0.0
  3
*MODEL_SPACE
  1

  0
ENDBLK
  5
E
100
AcDbEntity
  8
0
100
AcDbBlockEnd
  0
BLOCK
  5
F
100
AcDbEntity
 67
     1
  8
0
100
AcDbBlockBegin
  2
*PAPER_SPACE
 70
     0
 10
0.0
 20
0.0
 30
0.0
  3
*PAPER_SPACE
  1

  0
ENDBLK
  5
10
100
AcDbEntity
 67
     1
  8
0
100
AcDbBlockEnd
  0
ENDSEC
  0
SECTION
  2
ENTITIES
  0
LINE
  5
35
100
AcDbEntity
  8
0
  6
Continuous
 62
     2
100
AcDbLine
 10
374.477638
 20
238.607877
 30
0.0
 11
97.811323
 21
238.607877
 31
0.0
  0
LINE
  5
36
100
AcDbEntity
  8
0
  6
Continuous
 62
     4
100
AcDbLine
 10
331.534678
 20
68.9507
 30
0.0
 11
331.534678
 21
48.910652
 31
0.0
  0
LINE
  5
37
100
AcDbEntity
  8
0
  6
Continuous
 62
     4
100
AcDbLine
 10
331.534678
 20
53.920664
 30
0.0
 11
374.477638
 21
53.920664
 31
0.0
  0
LINE
  5
38
100
AcDbEntity
  8
0
  6
Continuous
 62
     2
100
AcDbLine
 10
374.477638
 20
238.607877
 30
0.0
 11
374.477638
 21
48.910652
 31
0.0
  0
LINE
  5
39
100
AcDbEntity
  8
0
  6
Continuous
 62
     2
100
AcDbLine
 10
374.477638
 20
48.910652
 30
0.0
 11
97.811323
 21
48.910652
 31
0.0
  0
LINE
  5
3A
100
AcDbEntity
  8
0
  6
Continuous
 62
     2
100
AcDbLine
 10
97.811323
 20
238.607877
 30
0.0
 11
97.811323
 21
48.910652
 31
0.0
  0
LINE
  5
3B
100
AcDbEntity
  8
0
  6
Continuous
 62
     4
100
AcDbLine
 10
331.564718
 20
58.930676
 30
0.0
 11
374.477638
 21
58.930676
 31
0.0
  0
LINE
  5
3C
100
AcDbEntity
  8
0
  6
Continuous
 62
     2
100
AcDbLine
 10
331.564718
 20
68.9507
 30
0.0
 11
374.477638
 21
68.9507
 31
0.0
  0
LINE
  5
3D
100
AcDbEntity
  8
0
  6
Continuous
 62
     4
100
AcDbLine
 10
100.614117
 20
232.698167
 30
0.0
 11
219.414108
 21
232.698167
 31
0.0
  0
LINE
  5
3E
100
AcDbEntity
  8
0
  6
Continuous
 62
     4
100
AcDbLine
 10
100.614117
 20
232.698167
 30
0.0
 11
100.614117
 21
69.348168
 31
0.0
  0
LINE
  5
3F
100
AcDbEntity
  8
0
  6
Continuous
 62
     4
100
AcDbLine
 10
127.014117
 20
232.698167
 30
0.0
 11
127.014117
 21
69.348168
 31
0.0
  0
LINE
  5
40
100
AcDbEntity
  8
0
  6
Continuous
 62
     4
100
AcDbLine
 10
140.214117
 20
232.698167
 30
0.0
 11
140.214117
 21
69.348168
 31
0.0
  0
LINE
  5
41
100
AcDbEntity
  8
0
  6
Continuous
 62
     4
100
AcDbLine
 10
153.414117
 20
232.698167
 30
0.0
 11
153.414117
 21
69.348168
 31
0.0
  0
LINE
  5
42
100
AcDbEntity
  8
0
  6
Continuous
 62
     4
100
AcDbLine
 10
166.614117
 20
232.698167
 30
0.0
 11
166.614117
 21
69.348168
 31
0.0
  0
LINE
  5
43
100
AcDbEntity
  8
0
  6
Continuous
 62
     4
100
AcDbLine
 10
179.814117
 20
232.698167
 30
0.0
 11
179.814117
 21
69.348168
 31
0.0
  0
LINE
  5
44
100
AcDbEntity
  8
0
  6
Continuous
 62
     4
100
AcDbLine
 10
193.014108
 20
232.698167
 30
0.0
 11
193.014108
 21
69.348168
 31
0.0
  0
LINE
  5
45
100
AcDbEntity
  8
0
  6
Continuous
 62
     4
100
AcDbLine
 10
206.214108
 20
232.698167
 30
0.0
 11
206.214108
 21
69.348168
 31
0.0
  0
LINE
  5
46
100
AcDbEntity
  8
0
  6
Continuous
 62
     4
100
AcDbLine
 10
219.414108
 20
232.698167
 30
0.0
 11
219.414108
 21
69.348168
 31
0.0
  0
LINE
  5
47
100
AcDbEntity
  8
0
  6
Continuous
 62
     4
100
AcDbLine
 10
100.614117
 20
226.648167
 30
0.0
 11
219.414108
 21
226.648167
 31
0.0
  0
LINE
  5
48
100
AcDbEntity
  8
0
  6
Continuous
 62
     4
100
AcDbLine
 10
100.614117
 20
223.623167
 30
0.0
 11
219.414108
 21
223.623167
 31
0.0
  0
LINE
  5
49
100
AcDbEntity
  8
0
  6
Continuous
 62
     4
100
AcDbLine
 10
100.614117
 20
220.598167
 30
0.0
 11
219.414108
 21
220.598167
 31
0.0
  0
LINE
  5
4A
100
AcDbEntity
  8
0
  6
Continuous
 62
     4
100
AcDbLine
 10
100.614117
 20
217.573167
 30
0.0
 11
219.414108
 21
217.573167
 31
0.0
  0
LINE
  5
4B
100
AcDbEntity
  8
0
  6
Continuous
 62
     4
100
AcDbLine
 10
100.614117
 20
214.548167
 30
0.0
 11
219.414108
 21
214.548167
 31
0.0
  0
LINE
  5
4C
100
AcDbEntity
  8
0
  6
Continuous
 62
     4
100
AcDbLine
 10
100.614117
 20
211.523167
 30
0.0
 11
219.414108
 21
211.523167
 31
0.0
  0
LINE
  5
4D
100
AcDbEntity
  8
0
  6
Continuous
 62
     4
100
AcDbLine
 10
100.614117
 20
208.498167
 30
0.0
 11
219.414108
 21
208.498167
 31
0.0
  0
LINE
  5
4E
100
AcDbEntity
  8
0
  6
Continuous
 62
     4
100
AcDbLine
 10
100.614117
 20
205.473167
 30
0.0
 11
219.414108
 21
205.473167
 31
0.0
  0
LINE
  5
4F
100
AcDbEntity
  8
0
  6
Continuous
 62
     4
100
AcDbLine
 10
100.614117
 20
202.448167
 30
0.0
 11
219.414108
 21
202.448167
 31
0.0
  0
LINE
  5
50
100
AcDbEntity
  8
0
  6
Continuous
 62
     4
100
AcDbLine
 10
100.614117
 20
199.423167
 30
0.0
 11
219.414108
 21
199.423167
 31
0.0
  0
LINE
  5
51
100
AcDbEntity
  8
0
  6
Continuous
 62
     4
100
AcDbLine
 10
100.614117
 20
196.398167
 30
0.0
 11
219.414108
 21
196.398167
 31
0.0
  0
LINE
  5
52
100
AcDbEntity
  8
0
  6
Continuous
 62
     4
100
AcDbLine
 10
100.614117
 20
193.373167
 30
0.0
 11
219.414108
 21
193.373167
 31
0.0
  0
LINE
  5
53
100
AcDbEntity
  8
0
  6
Continuous
 62
     4
100
AcDbLine
 10
100.614117
 20
190.348167
 30
0.0
 11
219.414108
 21
190.348167
 31
0.0
  0
LINE
  5
54
100
AcDbEntity
  8
0
  6
Continuous
 62
     4
100
AcDbLine
 10
100.614117
 20
187.323167
 30
0.0
 11
219.414108
 21
187.323167
 31
0.0
  0
LINE
  5
55
100
AcDbEntity
  8
0
  6
Continuous
 62
     4
100
AcDbLine
 10
100.614117
 20
184.298167
 30
0.0
 11
219.414108
 21
184.298167
 31
0.0
  0
LINE
  5
56
100
AcDbEntity
  8
0
  6
Continuous
 62
     4
100
AcDbLine
 10
100.614117
 20
181.273167
 30
0.0
 11
219.414108
 21
181.273167
 31
0.0
  0
LINE
  5
57
100
AcDbEntity
  8
0
  6
Continuous
 62
     4
100
AcDbLine
 10
100.614117
 20
178.248167
 30
0.0
 11
219.414108
 21
178.248167
 31
0.0
  0
LINE
  5
58
100
AcDbEntity
  8
0
  6
Continuous
 62
     4
100
AcDbLine
 10
100.614117
 20
175.223167
 30
0.0
 11
219.414108
 21
175.223167
 31
0.0
  0
LINE
  5
59
100
AcDbEntity
  8
0
  6
Continuous
 62
     4
100
AcDbLine
 10
100.614117
 20
172.198167
 30
0.0
 11
219.414108
 21
172.198167
 31
0.0
  0
LINE
  5
5A
100
AcDbEntity
  8
0
  6
Continuous
 62
     4
100
AcDbLine
 10
100.614117
 20
169.173167
 30
0.0
 11
219.414108
 21
169.173167
 31
0.0
  0
LINE
  5
5B
100
AcDbEntity
  8
0
  6
Continuous
 62
     4
100
AcDbLine
 10
100.614117
 20
166.148167
 30
0.0
 11
219.414108
 21
166.148167
 31
0.0
  0
LINE
  5
5C
100
AcDbEntity
  8
0
  6
Continuous
 62
     4
100
AcDbLine
 10
100.614117
 20
163.123167
 30
0.0
 11
219.414108
 21
163.123167
 31
0.0
  0
LINE
  5
5D
100
AcDbEntity
  8
0
  6
Continuous
 62
     4
100
AcDbLine
 10
100.614117
 20
160.098167
 30
0.0
 11
219.414108
 21
160.098167
 31
0.0
  0
LINE
  5
5E
100
AcDbEntity
  8
0
  6
Continuous
 62
     4
100
AcDbLine
 10
100.614117
 20
157.073167
 30
0.0
 11
219.414108
 21
157.073167
 31
0.0
  0
LINE
  5
5F
100
AcDbEntity
  8
0
  6
Continuous
 62
     4
100
AcDbLine
 10
100.614117
 20
151.023167
 30
0.0
 11
219.414108
 21
151.023167
 31
0.0
  0
LINE
  5
60
100
AcDbEntity
  8
0
  6
Continuous
 62
     4
100
AcDbLine
 10
100.614117
 20
154.048167
 30
0.0
 11
219.414108
 21
154.048167
 31
0.0
  0
LINE
  5
61
100
AcDbEntity
  8
0
  6
Continuous
 62
     4
100
AcDbLine
 10
100.614117
 20
147.998167
 30
0.0
 11
219.414108
 21
147.998167
 31
0.0
  0
LINE
  5
62
100
AcDbEntity
  8
0
  6
Continuous
 62
     4
100
AcDbLine
 10
100.614117
 20
144.973167
 30
0.0
 11
219.414108
 21
144.973167
 31
0.0
  0
LINE
  5
63
100
AcDbEntity
  8
0
  6
Continuous
 62
     4
100
AcDbLine
 10
100.614117
 20
141.948167
 30
0.0
 11
219.414108
 21
141.948167
 31
0.0
  0
LINE
  5
64
100
AcDbEntity
  8
0
  6
Continuous
 62
     4
100
AcDbLine
 10
100.614117
 20
135.898168
 30
0.0
 11
219.414108
 21
135.898168
 31
0.0
  0
LINE
  5
65
100
AcDbEntity
  8
0
  6
Continuous
 62
     4
100
AcDbLine
 10
100.614117
 20
138.923167
 30
0.0
 11
219.414108
 21
138.923167
 31
0.0
  0
LINE
  5
66
100
AcDbEntity
  8
0
  6
Continuous
 62
     4
100
AcDbLine
 10
100.614117
 20
132.873168
 30
0.0
 11
219.414108
 21
132.873168
 31
0.0
  0
LINE
  5
67
100
AcDbEntity
  8
0
  6
Continuous
 62
     4
100
AcDbLine
 10
113.814117
 20
232.698167
 30
0.0
 11
113.814117
 21
69.348168
 31
0.0
  0
LINE
  5
68
100
AcDbEntity
  8
0
  6
Continuous
 62
     4
100
AcDbLine
 10
100.614117
 20
129.848168
 30
0.0
 11
219.414108
 21
129.848168
 31
0.0
  0
LINE
  5
69
100
AcDbEntity
  8
0
  6
Continuous
 62
     4
100
AcDbLine
 10
100.614117
 20
126.823168
 30
0.0
 11
219.414108
 21
126.823168
 31
0.0
  0
LINE
  5
6A
100
AcDbEntity
  8
0
  6
Continuous
 62
     4
100
AcDbLine
 10
100.614117
 20
123.798168
 30
0.0
 11
219.414108
 21
123.798168
 31
0.0
  0
LINE
  5
6B
100
AcDbEntity
  8
0
  6
Continuous
 62
     4
100
AcDbLine
 10
100.614117
 20
120.773168
 30
0.0
 11
219.414108
 21
120.773168
 31
0.0
  0
LINE
  5
6C
100
AcDbEntity
  8
0
  6
Continuous
 62
     4
100
AcDbLine
 10
100.614117
 20
117.748168
 30
0.0
 11
219.414108
 21
117.748168
 31
0.0
  0
LINE
  5
6D
100
AcDbEntity
  8
0
  6
Continuous
 62
     4
100
AcDbLine
 10
100.614117
 20
114.723168
 30
0.0
 11
219.414108
 21
114.723168
 31
0.0
  0
LINE
  5
6E
100
AcDbEntity
  8
0
  6
Continuous
 62
     4
100
AcDbLine
 10
100.614117
 20
111.698168
 30
0.0
 11
219.414108
 21
111.698168
 31
0.0
  0
LINE
  5
6F
100
AcDbEntity
  8
0
  6
Continuous
 62
     4
100
AcDbLine
 10
100.614117
 20
105.648168
 30
0.0
 11
219.414108
 21
105.648168
 31
0.0
  0
LINE
  5
70
100
AcDbEntity
  8
0
  6
Continuous
 62
     4
100
AcDbLine
 10
100.614117
 20
108.673168
 30
0.0
 11
219.414108
 21
108.673168
 31
0.0
  0
LINE
  5
71
100
AcDbEntity
  8
0
  6
Continuous
 62
     4
100
AcDbLine
 10
100.614117
 20
102.623168
 30
0.0
 11
219.414108
 21
102.623168
 31
0.0
  0
LINE
  5
72
100
AcDbEntity
  8
0
  6
Continuous
 62
     4
100
AcDbLine
 10
100.614117
 20
99.598168
 30
0.0
 11
219.414108
 21
99.598168
 31
0.0
  0
LINE
  5
73
100
AcDbEntity
  8
0
  6
Continuous
 62
     4
100
AcDbLine
 10
100.614117
 20
96.573168
 30
0.0
 11
219.414108
 21
96.573168
 31
0.0
  0
LINE
  5
74
100
AcDbEntity
  8
0
  6
Continuous
 62
     4
100
AcDbLine
 10
100.614117
 20
90.523168
 30
0.0
 11
219.414108
 21
90.523168
 31
0.0
  0
LINE
  5
75
100
AcDbEntity
  8
0
  6
Continuous
 62
     4
100
AcDbLine
 10
100.614117
 20
87.498168
 30
0.0
 11
219.414108
 21
87.498168
 31
0.0
  0
LINE
  5
76
100
AcDbEntity
  8
0
  6
Continuous
 62
     4
100
AcDbLine
 10
100.614117
 20
84.473168
 30
0.0
 11
219.414108
 21
84.473168
 31
0.0
  0
LINE
  5
77
100
AcDbEntity
  8
0
  6
Continuous
 62
     4
100
AcDbLine
 10
100.614117
 20
93.548168
 30
0.0
 11
219.414108
 21
93.548168
 31
0.0
  0
LINE
  5
78
100
AcDbEntity
  8
0
  6
Continuous
 62
     4
100
AcDbLine
 10
100.614117
 20
81.448168
 30
0.0
 11
219.414108
 21
81.448168
 31
0.0
  0
LINE
  5
79
100
AcDbEntity
  8
0
  6
Continuous
 62
     4
100
AcDbLine
 10
100.614117
 20
78.423168
 30
0.0
 11
219.414108
 21
78.423168
 31
0.0
  0
LINE
  5
7A
100
AcDbEntity
  8
0
  6
Continuous
 62
     4
100
AcDbLine
 10
100.614117
 20
75.398168
 30
0.0
 11
219.414108
 21
75.398168
 31
0.0
  0
LINE
  5
7B
100
AcDbEntity
  8
0
  6
Continuous
 62
     4
100
AcDbLine
 10
100.614117
 20
72.373168
 30
0.0
 11
219.414108
 21
72.373168
 31
0.0
  0
LINE
  5
7C
100
AcDbEntity
  8
0
  6
Continuous
 62
     4
100
AcDbLine
 10
100.614117
 20
69.348168
 30
0.0
 11
219.414108
 21
69.348168
 31
0.0
  0
LINE
  5
7D
100
AcDbEntity
  8
0
  6
Continuous
 62
     2
100
AcDbLine
 10
239.575628
 20
152.813557
 30
0.0
 11
239.575628
 21
108.113873
 31
0.0
  0
LINE
  5
7E
100
AcDbEntity
  8
0
  6
Continuous
 62
     2
100
AcDbLine
 10
259.283128
 20
152.321177
 30
0.0
 11
239.588128
 21
152.813557
 31
0.0
  0
LINE
  5
7F
100
AcDbEntity
  8
0
  6
Continuous
 62
     2
100
AcDbLine
 10
259.283128
 20
108.606248
 30
0.0
 11
239.588128
 21
108.113873
 31
0.0
  0
LINE
  5
80
100
AcDbEntity
  8
0
  6
Continuous
 62
     2
100
AcDbLine
 10
259.575628
 20
152.021277
 30
0.0
 11
259.575628
 21
108.906154
 31
0.0
  0
LINE
  5
81
100
AcDbEntity
  8
0
  6
Continuous
 62
     2
100
AcDbLine
 10
366.375628
 20
152.813557
 30
0.0
 11
366.375628
 21
108.113873
 31
0.0
  0
LINE
  5
82
100
AcDbEntity
  8
0
  6
Continuous
 62
     2
100
AcDbLine
 10
346.668128
 20
152.321177
 30
0.0
 11
366.363128
 21
152.813557
 31
0.0
  0
LINE
  5
83
100
AcDbEntity
  8
0
  6
Continuous
 62
     2
100
AcDbLine
 10
346.668128
 20
108.606248
 30
0.0
 11
366.363128
 21
108.113873
 31
0.0
  0
LINE
  5
84
100
AcDbEntity
  8
0
  6
Continuous
 62
     2
100
AcDbLine
 10
346.375628
 20
152.021277
 30
0.0
 11
346.375628
 21
108.906154
 31
0.0
  0
LINE
  5
85
100
AcDbEntity
  8
0
  6
Continuous
 62
     2
100
AcDbLine
 10
346.680628
 20
151.821337
 30
0.0
 11
366.375628
 21
152.313707
 31
0.0
  0
LINE
  5
86
100
AcDbEntity
  8
0
  6
Continuous
 62
     2
100
AcDbLine
 10
346.680628
 20
109.106091
 30
0.0
 11
366.375628
 21
108.613716
 31
0.0
  0
LINE
  5
87
100
AcDbEntity
  8
0
  6
Continuous
 62
     2
100
AcDbLine
 10
259.575628
 20
108.863716
 30
0.0
 11
346.375628
 21
108.863716
 31
0.0
  0
LINE
  5
88
100
AcDbEntity
  8
0
  6
Continuous
 62
     4
100
AcDbLine
 10
281.375628
 20
130.463716
 30
0.0
 11
352.148268
 21
201.236347
 31
0.0
  0
LINE
  5
89
100
AcDbEntity
  8
0
  6
Continuous
 62
     2
100
AcDbLine
 10
326.310148
 20
152.063707
 30
0.0
 11
346.375628
 21
152.063707
 31
0.0
  0
LINE
  5
8A
100
AcDbEntity
  8
0
  6
Continuous
 62
     2
100
AcDbLine
 10
259.575628
 20
152.063707
 30
0.0
 11
279.641108
 21
152.063707
 31
0.0
  0
LINE
  5
8B
100
AcDbEntity
  8
0
  6
Continuous
 62
     2
100
AcDbLine
 10
279.641108
 20
152.063707
 30
0.0
 11
317.084518
 21
189.507127
 31
0.0
  0
LINE
  5
8C
100
AcDbEntity
  8
0
  6
Continuous
 62
     2
100
AcDbLine
 10
326.310148
 20
152.063707
 30
0.0
 11
340.419048
 21
166.172607
 31
0.0
  0
LINE
  5
8D
100
AcDbEntity
  8
0
  6
Continuous
 62
     2
100
AcDbLine
 10
355.091398
 20
179.784517
 30
0.0
 11
330.696438
 21
204.179487
 31
0.0
  0
LINE
  5
8E
100
AcDbEntity
  8
0
  6
Continuous
 62
     2
100
AcDbLine
 10
331.049878
 20
203.826037
 30
0.0
 11
317.261298
 21
189.330347
 31
0.0
  0
LINE
  5
8F
100
AcDbEntity
  8
0
  6
Continuous
 62
     2
100
AcDbLine
 10
340.242268
 20
166.349377
 30
0.0
 11
354.737958
 21
180.137967
 31
0.0
  0
LINE
  5
90
100
AcDbEntity
  8
0
  6
Continuous
 62
     2
100
AcDbLine
 10
289.777108
 20
161.492607
 30
0.0
 11
303.367538
 21
175.083037
 31
0.0
  0
LINE
  5
91
100
AcDbEntity
  8
0
  6
Continuous
 62
     4
100
AcDbLine
 10
366.375628
 20
154.813557
 30
0.0
 11
366.375628
 21
163.063707
 31
0.0
  0
LINE
  5
92
100
AcDbEntity
  8
0
  6
Continuous
 62
     4
100
AcDbLine
 10
346.375628
 20
154.063707
 30
0.0
 11
346.375628
 21
163.063707
 31
0.0
  0
LINE
  5
93
100
AcDbEntity
  8
0
  6
Continuous
 62
     4
100
AcDbLine
 10
366.375628
 20
87.113873
 30
0.0
 11
366.375628
 21
106.113873
 31
0.0
  0
LINE
  5
94
100
AcDbEntity
  8
0
  6
Continuous
 62
     4
100
AcDbLine
 10
239.575628
 20
87.113873
 30
0.0
 11
239.575628
 21
106.113873
 31
0.0
  0
LINE
  5
95
100
AcDbEntity
  8
0
  6
DASHDOT
 62
     4
100
AcDbLine
 10
236.153968
 20
130.463716
 30
0.0
 11
370.465178
 21
130.463716
 31
0.0
  0
LINE
  5
96
100
AcDbEntity
  8
0
  6
Continuous
 62
     2
100
AcDbLine
 10
259.270628
 20
151.821337
 30
0.0
 11
239.575628
 21
152.313707
 31
0.0
  0
LINE
  5
97
100
AcDbEntity
  8
0
  6
Continuous
 62
     2
100
AcDbLine
 10
259.270628
 20
109.106091
 30
0.0
 11
239.575628
 21
108.613716
 31
0.0
  0
LINE
  5
98
100
AcDbEntity
  8
0
  6
Continuous
 62
     2
100
AcDbLine
 10
330.687598
 20
204.170647
 30
0.0
 11
317.109298
 21
189.896017
 31
0.0
  0
LINE
  5
99
100
AcDbEntity
  8
0
  6
Continuous
 62
     2
100
AcDbLine
 10
340.807938
 20
166.197377
 30
0.0
 11
355.082568
 21
179.775687
 31
0.0
  0
LINE
  5
9A
100
AcDbEntity
  8
0
  6
Continuous
 62
     2
100
AcDbLine
 10
340.389038
 20
166.202617
 30
0.0
 11
317.114528
 21
189.477117
 31
0.0
  0
LINE
  5
9B
100
AcDbEntity
  8
0
  6
Continuous
 62
     4
100
AcDbLine
 10
228.575628
 20
152.021277
 30
0.0
 11
238.350228
 21
152.021277
 31
0.0
  0
LINE
  5
9C
100
AcDbEntity
  8
0
  6
Continuous
 62
     4
100
AcDbLine
 10
228.575628
 20
108.906154
 30
0.0
 11
238.350228
 21
108.906154
 31
0.0
  0
LINE
  5
9D
100
AcDbEntity
  8
0
  6
Continuous
 62
     4
100
AcDbLine
 10
252.384248
 20
159.455087
 30
0.0
 11
281.375628
 21
130.463716
 31
0.0
  0
LINE
  5
9E
100
AcDbEntity
  8
0
  6
Continuous
 62
     4
100
AcDbLine
 10
332.883668
 20
205.306267
 30
0.0
 11
346.075898
 21
218.498507
 31
0.0
  0
LINE
  5
9F
100
AcDbEntity
  8
0
  6
Continuous
 62
     4
100
AcDbLine
 10
356.218188
 20
181.971747
 30
0.0
 11
369.410418
 21
195.163977
 31
0.0
  0
LINE
  5
A0
100
AcDbEntity
  8
0
  6
Continuous
 62
     4
100
AcDbLine
 10
313.902538
 20
220.973377
 30
0.0
 11
329.910148
 21
204.965777
 31
0.0
  0
LINE
  5
A1
100
AcDbEntity
  8
0
  6
Continuous
 62
     4
100
AcDbLine
 10
308.776128
 20
197.815517
 30
0.0
 11
315.847088
 21
190.744567
 31
0.0
  0
LINE
  5
A2
100
AcDbEntity
  8
0
  6
Continuous
 62
     2
100
AcDbLine
 10
305.305598
 20
109.363716
 30
0.0
 11
323.922628
 21
109.363716
 31
0.0
  0
LINE
  5
A3
100
AcDbEntity
  8
0
  6
Continuous
 62
     4
100
AcDbLine
 10
281.375628
 20
109.453487
 30
0.0
 11
281.375628
 21
130.463716
 31
0.0
  0
LINE
  5
A4
100
AcDbEntity
  8
0
  6
Continuous
 62
     4
100
AcDbLine
 10
281.375628
 20
90.374662
 30
0.0
 11
281.375628
 21
107.591785
 31
0.0
  0
LINE
  5
A5
100
AcDbEntity
  8
0
  6
Continuous
 62
     4
100
AcDbLine
 10
313.145058
 20
108.98746
 30
0.0
 11
313.666003
 21
106.033037
 31
0.0
  0
LINE
  5
A6
100
AcDbEntity
  8
0
  6
Continuous
 62
     4
100
AcDbLine
 10
313.145058
 20
108.98746
 30
0.0
 11
312.624114
 21
106.033037
 31
0.0
  0
LINE
  5
A7
100
AcDbEntity
  8
0
  6
Continuous
 62
     4
100
AcDbLine
 10
313.145058
 20
108.98746
 30
0.0
 11
313.145058
 21
101.247963
 31
0.0
  0
LINE
  5
A8
100
AcDbEntity
  8
0
  6
Continuous
 62
     4
100
AcDbLine
 10
296.708788
 20
168.424287
 30
0.0
 11
299.166245
 21
166.703558
 31
0.0
  0
LINE
  5
A9
100
AcDbEntity
  8
0
  6
Continuous
 62
     4
100
AcDbLine
 10
296.708788
 20
168.424287
 30
0.0
 11
298.429518
 21
165.966831
 31
0.0
  0
LINE
  5
AA
100
AcDbEntity
  8
0
  6
Continuous
 62
     4
100
AcDbLine
 10
296.708788
 20
168.424287
 30
0.0
 11
300.943957
 21
164.189119
 31
0.0
  0
LINE
  5
AB
100
AcDbEntity
  8
0
  6
Continuous
 62
     4
100
AcDbLine
 10
229.575628
 20
152.021277
 30
0.0
 11
230.096573
 21
149.066854
 31
0.0
  0
LINE
  5
AC
100
AcDbEntity
  8
0
  6
Continuous
 62
     4
100
AcDbLine
 10
229.575628
 20
152.021277
 30
0.0
 11
229.054684
 21
149.066854
 31
0.0
  0
LINE
  5
AD
100
AcDbEntity
  8
0
  6
Continuous
 62
     4
100
AcDbLine
 10
229.575628
 20
108.906153
 30
0.0
 11
229.054684
 21
111.860576
 31
0.0
  0
LINE
  5
AE
100
AcDbEntity
  8
0
  6
Continuous
 62
     4
100
AcDbLine
 10
229.575628
 20
108.906153
 30
0.0
 11
230.096573
 21
111.860576
 31
0.0
  0
LINE
  5
AF
100
AcDbEntity
  8
0
  6
Continuous
 62
     4
100
AcDbLine
 10
229.575628
 20
108.906153
 30
0.0
 11
229.575628
 21
152.021277
 31
0.0
  0
LINE
  5
B0
100
AcDbEntity
  8
0
  6
Continuous
 62
     4
100
AcDbLine
 10
239.575628
 20
98.113873
 30
0.0
 11
242.530052
 21
98.634818
 31
0.0
  0
LINE
  5
B1
100
AcDbEntity
  8
0
  6
Continuous
 62
     4
100
AcDbLine
 10
239.575628
 20
98.113873
 30
0.0
 11
242.530052
 21
97.592929
 31
0.0
  0
LINE
  5
B2
100
AcDbEntity
  8
0
  6
Continuous
 62
     4
100
AcDbLine
 10
281.375628
 20
98.113873
 30
0.0
 11
278.421204
 21
97.592929
 31
0.0
  0
LINE
  5
B3
100
AcDbEntity
  8
0
  6
Continuous
 62
     4
100
AcDbLine
 10
281.375628
 20
98.113873
 30
0.0
 11
278.421204
 21
98.634818
 31
0.0
  0
LINE
  5
B4
100
AcDbEntity
  8
0
  6
Continuous
 62
     4
100
AcDbLine
 10
281.375628
 20
98.113873
 30
0.0
 11
239.575628
 21
98.113873
 31
0.0
  0
LINE
  5
B5
100
AcDbEntity
  8
0
  6
Continuous
 62
     4
100
AcDbLine
 10
366.375628
 20
98.113873
 30
0.0
 11
363.421205
 21
97.592929
 31
0.0
  0
LINE
  5
B6
100
AcDbEntity
  8
0
  6
Continuous
 62
     4
100
AcDbLine
 10
366.375628
 20
98.113873
 30
0.0
 11
363.421205
 21
98.634818
 31
0.0
  0
LINE
  5
B7
100
AcDbEntity
  8
0
  6
Continuous
 62
     4
100
AcDbLine
 10
281.375628
 20
98.113873
 30
0.0
 11
284.330052
 21
98.634818
 31
0.0
  0
LINE
  5
B8
100
AcDbEntity
  8
0
  6
Continuous
 62
     4
100
AcDbLine
 10
281.375628
 20
98.113873
 30
0.0
 11
284.330052
 21
97.592929
 31
0.0
  0
LINE
  5
B9
100
AcDbEntity
  8
0
  6
Continuous
 62
     4
100
AcDbLine
 10
281.375628
 20
98.113873
 30
0.0
 11
366.375628
 21
98.113873
 31
0.0
  0
LINE
  5
BA
100
AcDbEntity
  8
0
  6
Continuous
 62
     4
100
AcDbLine
 10
366.375628
 20
88.113873
 30
0.0
 11
363.421205
 21
87.592929
 31
0.0
  0
LINE
  5
BB
100
AcDbEntity
  8
0
  6
Continuous
 62
     4
100
AcDbLine
 10
366.375628
 20
88.113873
 30
0.0
 11
363.421205
 21
88.634818
 31
0.0
  0
LINE
  5
BC
100
AcDbEntity
  8
0
  6
Continuous
 62
     4
100
AcDbLine
 10
239.575628
 20
88.113873
 30
0.0
 11
242.530058
 21
88.634818
 31
0.0
  0
LINE
  5
BD
100
AcDbEntity
  8
0
  6
Continuous
 62
     4
100
AcDbLine
 10
239.575628
 20
88.113873
 30
0.0
 11
242.530058
 21
87.592929
 31
0.0
  0
LINE
  5
BE
100
AcDbEntity
  8
0
  6
Continuous
 62
     4
100
AcDbLine
 10
239.575628
 20
88.113873
 30
0.0
 11
366.375628
 21
88.113873
 31
0.0
  0
LINE
  5
BF
100
AcDbEntity
  8
0
  6
Continuous
 62
     4
100
AcDbLine
 10
253.091358
 20
158.747977
 30
0.0
 11
254.812088
 21
161.205433
 31
0.0
  0
LINE
  5
C0
100
AcDbEntity
  8
0
  6
Continuous
 62
     4
100
AcDbLine
 10
253.091358
 20
158.747977
 30
0.0
 11
255.548815
 21
160.468706
 31
0.0
  0
LINE
  5
C1
100
AcDbEntity
  8
0
  6
Continuous
 62
     4
100
AcDbLine
 10
314.609647
 20
220.266266
 30
0.0
 11
312.888918
 21
217.80881
 31
0.0
  0
LINE
  5
C2
100
AcDbEntity
  8
0
  6
Continuous
 62
     4
100
AcDbLine
 10
314.609647
 20
220.266266
 30
0.0
 11
312.152191
 21
218.545537
 31
0.0
  0
LINE
  5
C3
100
AcDbEntity
  8
0
  6
Continuous
 62
     4
100
AcDbLine
 10
314.609647
 20
220.266266
 30
0.0
 11
253.091358
 21
158.747977
 31
0.0
  0
LINE
  5
C4
100
AcDbEntity
  8
0
  6
Continuous
 62
     4
100
AcDbLine
 10
323.625368
 20
211.250547
 30
0.0
 11
321.904639
 21
208.793091
 31
0.0
  0
LINE
  5
C5
100
AcDbEntity
  8
0
  6
Continuous
 62
     4
100
AcDbLine
 10
323.625368
 20
211.250547
 30
0.0
 11
321.167912
 21
209.529818
 31
0.0
  0
LINE
  5
C6
100
AcDbEntity
  8
0
  6
Continuous
 62
     4
100
AcDbLine
 10
309.483233
 20
197.108412
 30
0.0
 11
311.203962
 21
199.565868
 31
0.0
  0
LINE
  5
C7
100
AcDbEntity
  8
0
  6
Continuous
 62
     4
100
AcDbLine
 10
309.483233
 20
197.108412
 30
0.0
 11
311.940689
 21
198.829141
 31
0.0
  0
LINE
  5
C8
100
AcDbEntity
  8
0
  6
Continuous
 62
     4
100
AcDbLine
 10
309.483233
 20
197.108412
 30
0.0
 11
323.625368
 21
211.250547
 31
0.0
  0
LINE
  5
C9
100
AcDbEntity
  8
0
  6
Continuous
 62
     4
100
AcDbLine
 10
366.375628
 20
162.063707
 30
0.0
 11
363.421205
 21
161.542763
 31
0.0
  0
LINE
  5
CA
100
AcDbEntity
  8
0
  6
Continuous
 62
     4
100
AcDbLine
 10
366.375628
 20
162.063707
 30
0.0
 11
363.421205
 21
162.584652
 31
0.0
  0
LINE
  5
CB
100
AcDbEntity
  8
0
  6
Continuous
 62
     4
100
AcDbLine
 10
346.375628
 20
162.063707
 30
0.0
 11
349.330052
 21
162.584652
 31
0.0
  0
LINE
  5
CC
100
AcDbEntity
  8
0
  6
Continuous
 62
     4
100
AcDbLine
 10
346.375628
 20
162.063707
 30
0.0
 11
349.330052
 21
161.542763
 31
0.0
  0
LINE
  5
CD
100
AcDbEntity
  8
0
  6
Continuous
 62
     4
100
AcDbLine
 10
346.375628
 20
162.063707
 30
0.0
 11
366.375628
 21
162.063707
 31
0.0
  0
LINE
  5
CE
100
AcDbEntity
  8
0
  6
Continuous
 62
     4
100
AcDbLine
 10
345.368788
 20
217.791397
 30
0.0
 11
347.826245
 21
216.070668
 31
0.0
  0
LINE
  5
CF
100
AcDbEntity
  8
0
  6
Continuous
 62
     4
100
AcDbLine
 10
345.368788
 20
217.791397
 30
0.0
 11
347.089518
 21
215.333941
 31
0.0
  0
LINE
  5
D0
100
AcDbEntity
  8
0
  6
Continuous
 62
     4
100
AcDbLine
 10
368.703311
 20
194.456874
 30
0.0
 11
366.245855
 21
196.177603
 31
0.0
  0
LINE
  5
D1
100
AcDbEntity
  8
0
  6
Continuous
 62
     4
100
AcDbLine
 10
368.703311
 20
194.456874
 30
0.0
 11
366.982582
 21
196.91433
 31
0.0
  0
LINE
  5
D2
100
AcDbEntity
  8
0
  6
Continuous
 62
     4
100
AcDbLine
 10
368.703311
 20
194.456874
 30
0.0
 11
345.368788
 21
217.791397
 31
0.0
  0
LINE
  5
D3
100
AcDbEntity
  8
0
  6
Continuous
 62
     4
100
AcDbLine
 10
295.644848
 20
144.732927
 30
0.0
 11
297.969873
 21
142.837074
 31
0.0
  0
LINE
  5
D4
100
AcDbEntity
  8
0
  6
Continuous
 62
     4
100
AcDbLine
 10
295.644848
 20
144.732927
 30
0.0
 11
297.181237
 21
142.156203
 31
0.0
  0
LINE
  5
D5
100
AcDbEntity
  8
0
  6
Continuous
 62
     4
100
AcDbLine
 10
301.555352
 20
130.463709
 30
0.0
 11
300.819724
 21
133.372119
 31
0.0
  0
LINE
  5
D6
100
AcDbEntity
  8
0
  6
Continuous
 62
     4
100
AcDbLine
 10
301.555352
 20
130.463709
 30
0.0
 11
301.858823
 21
133.44832
 31
0.0
  0
LINE
  5
D7
100
AcDbEntity
  8
0
  6
Continuous
 62
     4
100
AcDbLine
 10
313.166878
 20
109.48746
 30
0.0
 11
312.645934
 21
112.441883
 31
0.0
  0
LINE
  5
D8
100
AcDbEntity
  8
0
  6
Continuous
 62
     4
100
AcDbLine
 10
313.166878
 20
109.48746
 30
0.0
 11
313.687823
 21
112.441883
 31
0.0
  0
LINE
  5
D9
100
AcDbEntity
  8
0
  6
Continuous
 62
     4
100
AcDbLine
 10
313.166878
 20
109.48746
 30
0.0
 11
313.166878
 21
123.226957
 31
0.0
  0
LINE
  5
DA
100
AcDbEntity
  8
0
  6
Continuous
 62
     4
100
AcDbLine
 10
296.279748
 20
168.853327
 30
0.0
 11
293.822292
 21
170.574056
 31
0.0
  0
LINE
  5
DB
100
AcDbEntity
  8
0
  6
Continuous
 62
     4
100
AcDbLine
 10
296.279748
 20
168.853327
 30
0.0
 11
294.559019
 21
171.310783
 31
0.0
  0
LINE
  5
DC
100
AcDbEntity
  8
0
  6
Continuous
 62
     4
100
AcDbLine
 10
296.279748
 20
168.853327
 30
0.0
 11
286.345192
 21
178.787884
 31
0.0
  0
LINE
  5
DD
100
AcDbEntity
  8
0
  6
Continuous
 62
     2
100
AcDbLine
 10
279.641108
 20
152.063707
 30
0.0
 11
279.575727
 21
151.827241
 31
0.0
  0
LINE
  5
DE
100
AcDbEntity
  8
0
  6
Continuous
 62
     2
100
AcDbLine
 10
279.575727
 20
151.827241
 30
0.0
 11
279.511075
 21
151.590665
 31
0.0
  0
LINE
  5
DF
100
AcDbEntity
  8
0
  6
Continuous
 62
     2
100
AcDbLine
 10
279.511075
 20
151.590665
 30
0.0
 11
279.447884
 21
151.353872
 31
0.0
  0
LINE
  5
E0
100
AcDbEntity
  8
0
  6
Continuous
 62
     2
100
AcDbLine
 10
279.447884
 20
151.353872
 30
0.0
 11
279.386883
 21
151.116753
 31
0.0
  0
LINE
  5
E1
100
AcDbEntity
  8
0
  6
Continuous
 62
     2
100
AcDbLine
 10
279.386883
 20
151.116753
 30
0.0
 11
279.328803
 21
150.879198
 31
0.0
  0
LINE
  5
E2
100
AcDbEntity
  8
0
  6
Continuous
 62
     2
100
AcDbLine
 10
279.328803
 20
150.879198
 30
0.0
 11
279.274374
 21
150.641099
 31
0.0
  0
LINE
  5
E3
100
AcDbEntity
  8
0
  6
Continuous
 62
     2
100
AcDbLine
 10
279.274374
 20
150.641099
 30
0.0
 11
279.224326
 21
150.402348
 31
0.0
  0
LINE
  5
E4
100
AcDbEntity
  8
0
  6
Continuous
 62
     2
100
AcDbLine
 10
279.224326
 20
150.402348
 30
0.0
 11
279.179389
 21
150.162834
 31
0.0
  0
LINE
  5
E5
100
AcDbEntity
  8
0
  6
Continuous
 62
     2
100
AcDbLine
 10
279.179389
 20
150.162834
 30
0.0
 11
279.140293
 21
149.922451
 31
0.0
  0
LINE
  5
E6
100
AcDbEntity
  8
0
  6
Continuous
 62
     2
100
AcDbLine
 10
279.140293
 20
149.922451
 30
0.0
 11
279.107769
 21
149.681088
 31
0.0
  0
LINE
  5
E7
100
AcDbEntity
  8
0
  6
Continuous
 62
     2
100
AcDbLine
 10
279.107769
 20
149.681088
 30
0.0
 11
279.08798
 21
149.498274
 31
0.0
  0
LINE
  5
E8
100
AcDbEntity
  8
0
  6
Continuous
 62
     2
100
AcDbLine
 10
279.08798
 20
149.498274
 30
0.0
 11
279.072414
 21
149.314923
 31
0.0
  0
LINE
  5
E9
100
AcDbEntity
  8
0
  6
Continuous
 62
     2
100
AcDbLine
 10
279.072414
 20
149.314923
 30
0.0
 11
279.061137
 21
149.131119
 31
0.0
  0
LINE
  5
EA
100
AcDbEntity
  8
0
  6
Continuous
 62
     2
100
AcDbLine
 10
279.061137
 20
149.131119
 30
0.0
 11
279.054213
 21
148.946945
 31
0.0
  0
LINE
  5
EB
100
AcDbEntity
  8
0
  6
Continuous
 62
     2
100
AcDbLine
 10
279.054213
 20
148.946945
 30
0.0
 11
279.051708
 21
148.762483
 31
0.0
  0
LINE
  5
EC
100
AcDbEntity
  8
0
  6
Continuous
 62
     2
100
AcDbLine
 10
279.051708
 20
148.762483
 30
0.0
 11
279.053689
 21
148.577818
 31
0.0
  0
LINE
  5
ED
100
AcDbEntity
  8
0
  6
Continuous
 62
     2
100
AcDbLine
 10
279.053689
 20
148.577818
 30
0.0
 11
279.06022
 21
148.393032
 31
0.0
  0
LINE
  5
EE
100
AcDbEntity
  8
0
  6
Continuous
 62
     2
100
AcDbLine
 10
279.06022
 20
148.393032
 30
0.0
 11
279.071366
 21
148.208208
 31
0.0
  0
LINE
  5
EF
100
AcDbEntity
  8
0
  6
Continuous
 62
     2
100
AcDbLine
 10
279.071366
 20
148.208208
 30
0.0
 11
279.087194
 21
148.02343
 31
0.0
  0
LINE
  5
F0
100
AcDbEntity
  8
0
  6
Continuous
 62
     2
100
AcDbLine
 10
279.087194
 20
148.02343
 30
0.0
 11
279.107769
 21
147.83878
 31
0.0
  0
LINE
  5
F1
100
AcDbEntity
  8
0
  6
Continuous
 62
     2
100
AcDbLine
 10
279.107769
 20
147.83878
 30
0.0
 11
279.137918
 21
147.623471
 31
0.0
  0
LINE
  5
F2
100
AcDbEntity
  8
0
  6
Continuous
 62
     2
100
AcDbLine
 10
279.137918
 20
147.623471
 30
0.0
 11
279.174878
 21
147.408968
 31
0.0
  0
LINE
  5
F3
100
AcDbEntity
  8
0
  6
Continuous
 62
     2
100
AcDbLine
 10
279.174878
 20
147.408968
 30
0.0
 11
279.218898
 21
147.195786
 31
0.0
  0
LINE
  5
F4
100
AcDbEntity
  8
0
  6
Continuous
 62
     2
100
AcDbLine
 10
279.218898
 20
147.195786
 30
0.0
 11
279.270224
 21
146.984442
 31
0.0
  0
LINE
  5
F5
100
AcDbEntity
  8
0
  6
Continuous
 62
     2
100
AcDbLine
 10
279.270224
 20
146.984442
 30
0.0
 11
279.329105
 21
146.775452
 31
0.0
  0
LINE
  5
F6
100
AcDbEntity
  8
0
  6
Continuous
 62
     2
100
AcDbLine
 10
279.329105
 20
146.775452
 30
0.0
 11
279.395787
 21
146.569333
 31
0.0
  0
LINE
  5
F7
100
AcDbEntity
  8
0
  6
Continuous
 62
     2
100
AcDbLine
 10
279.395787
 20
146.569333
 30
0.0
 11
279.470519
 21
146.366602
 31
0.0
  0
LINE
  5
F8
100
AcDbEntity
  8
0
  6
Continuous
 62
     2
100
AcDbLine
 10
279.470519
 20
146.366602
 30
0.0
 11
279.553549
 21
146.167775
 31
0.0
  0
LINE
  5
F9
100
AcDbEntity
  8
0
  6
Continuous
 62
     2
100
AcDbLine
 10
279.553549
 20
146.167775
 30
0.0
 11
279.645124
 21
145.973368
 31
0.0
  0
LINE
  5
FA
100
AcDbEntity
  8
0
  6
Continuous
 62
     2
100
AcDbLine
 10
279.645124
 20
145.973368
 30
0.0
 11
279.745491
 21
145.783897
 31
0.0
  0
LINE
  5
FB
100
AcDbEntity
  8
0
  6
Continuous
 62
     2
100
AcDbLine
 10
279.745491
 20
145.783897
 30
0.0
 11
279.839948
 21
145.623447
 31
0.0
  0
LINE
  5
FC
100
AcDbEntity
  8
0
  6
Continuous
 62
     2
100
AcDbLine
 10
279.839948
 20
145.623447
 30
0.0
 11
279.940523
 21
145.466701
 31
0.0
  0
LINE
  5
FD
100
AcDbEntity
  8
0
  6
Continuous
 62
     2
100
AcDbLine
 10
279.940523
 20
145.466701
 30
0.0
 11
280.046496
 21
145.313241
 31
0.0
  0
LINE
  5
FE
100
AcDbEntity
  8
0
  6
Continuous
 62
     2
100
AcDbLine
 10
280.046496
 20
145.313241
 30
0.0
 11
280.157151
 21
145.162649
 31
0.0
  0
LINE
  5
FF
100
AcDbEntity
  8
0
  6
Continuous
 62
     2
100
AcDbLine
 10
280.157151
 20
145.162649
 30
0.0
 11
280.271771
 21
145.014505
 31
0.0
  0
LINE
  5
100
100
AcDbEntity
  8
0
  6
Continuous
 62
     2
100
AcDbLine
 10
280.271771
 20
145.014505
 30
0.0
 11
280.389637
 21
144.868392
 31
0.0
  0
LINE
  5
101
100
AcDbEntity
  8
0
  6
Continuous
 62
     2
100
AcDbLine
 10
280.389637
 20
144.868392
 30
0.0
 11
280.510032
 21
144.723891
 31
0.0
  0
LINE
  5
102
100
AcDbEntity
  8
0
  6
Continuous
 62
     2
100
AcDbLine
 10
280.510032
 20
144.723891
 30
0.0
 11
280.632239
 21
144.580584
 31
0.0
  0
LINE
  5
103
100
AcDbEntity
  8
0
  6
Continuous
 62
     2
100
AcDbLine
 10
280.632239
 20
144.580584
 30
0.0
 11
280.755541
 21
144.438053
 31
0.0
  0
LINE
  5
104
100
AcDbEntity
  8
0
  6
Continuous
 62
     2
100
AcDbLine
 10
280.755541
 20
144.438053
 30
0.0
 11
280.879219
 21
144.295879
 31
0.0
  0
LINE
  5
105
100
AcDbEntity
  8
0
  6
Continuous
 62
     2
100
AcDbLine
 10
280.879219
 20
144.295879
 30
0.0
 11
280.981849
 21
144.177832
 31
0.0
  0
LINE
  5
106
100
AcDbEntity
  8
0
  6
Continuous
 62
     2
100
AcDbLine
 10
280.981849
 20
144.177832
 30
0.0
 11
281.08453
 21
144.060038
 31
0.0
  0
LINE
  5
107
100
AcDbEntity
  8
0
  6
Continuous
 62
     2
100
AcDbLine
 10
281.08453
 20
144.060038
 30
0.0
 11
281.187547
 21
143.942791
 31
0.0
  0
LINE
  5
108
100
AcDbEntity
  8
0
  6
Continuous
 62
     2
100
AcDbLine
 10
281.187547
 20
143.942791
 30
0.0
 11
281.291187
 21
143.826387
 31
0.0
  0
LINE
  5
109
100
AcDbEntity
  8
0
  6
Continuous
 62
     2
100
AcDbLine
 10
281.291187
 20
143.826387
 30
0.0
 11
281.395734
 21
143.711119
 31
0.0
  0
LINE
  5
10A
100
AcDbEntity
  8
0
  6
Continuous
 62
     2
100
AcDbLine
 10
281.395734
 20
143.711119
 30
0.0
 11
281.501475
 21
143.597283
 31
0.0
  0
LINE
  5
10B
100
AcDbEntity
  8
0
  6
Continuous
 62
     2
100
AcDbLine
 10
281.501475
 20
143.597283
 30
0.0
 11
281.608695
 21
143.485173
 31
0.0
  0
LINE
  5
10C
100
AcDbEntity
  8
0
  6
Continuous
 62
     2
100
AcDbLine
 10
281.608695
 20
143.485173
 30
0.0
 11
281.71768
 21
143.375085
 31
0.0
  0
LINE
  5
10D
100
AcDbEntity
  8
0
  6
Continuous
 62
     2
100
AcDbLine
 10
281.71768
 20
143.375085
 30
0.0
 11
281.828716
 21
143.267312
 31
0.0
  0
LINE
  5
10E
100
AcDbEntity
  8
0
  6
Continuous
 62
     2
100
AcDbLine
 10
281.828716
 20
143.267312
 30
0.0
 11
281.942089
 21
143.162151
 31
0.0
  0
LINE
  5
10F
100
AcDbEntity
  8
0
  6
Continuous
 62
     2
100
AcDbLine
 10
281.942089
 20
143.162151
 30
0.0
 11
282.121983
 21
143.005432
 31
0.0
  0
LINE
  5
110
100
AcDbEntity
  8
0
  6
Continuous
 62
     2
100
AcDbLine
 10
282.121983
 20
143.005432
 30
0.0
 11
282.307539
 21
142.855083
 31
0.0
  0
LINE
  5
111
100
AcDbEntity
  8
0
  6
Continuous
 62
     2
100
AcDbLine
 10
282.307539
 20
142.855083
 30
0.0
 11
282.498175
 21
142.710555
 31
0.0
  0
LINE
  5
112
100
AcDbEntity
  8
0
  6
Continuous
 62
     2
100
AcDbLine
 10
282.498175
 20
142.710555
 30
0.0
 11
282.693312
 21
142.5713
 31
0.0
  0
LINE
  5
113
100
AcDbEntity
  8
0
  6
Continuous
 62
     2
100
AcDbLine
 10
282.693312
 20
142.5713
 30
0.0
 11
282.892368
 21
142.436771
 31
0.0
  0
LINE
  5
114
100
AcDbEntity
  8
0
  6
Continuous
 62
     2
100
AcDbLine
 10
282.892368
 20
142.436771
 30
0.0
 11
283.094763
 21
142.306421
 31
0.0
  0
LINE
  5
115
100
AcDbEntity
  8
0
  6
Continuous
 62
     2
100
AcDbLine
 10
283.094763
 20
142.306421
 30
0.0
 11
283.299915
 21
142.179701
 31
0.0
  0
LINE
  5
116
100
AcDbEntity
  8
0
  6
Continuous
 62
     2
100
AcDbLine
 10
283.299915
 20
142.179701
 30
0.0
 11
283.507245
 21
142.056064
 31
0.0
  0
LINE
  5
117
100
AcDbEntity
  8
0
  6
Continuous
 62
     2
100
AcDbLine
 10
283.507245
 20
142.056064
 30
0.0
 11
283.716172
 21
141.934963
 31
0.0
  0
LINE
  5
118
100
AcDbEntity
  8
0
  6
Continuous
 62
     2
100
AcDbLine
 10
283.716172
 20
141.934963
 30
0.0
 11
283.926114
 21
141.815849
 31
0.0
  0
LINE
  5
119
100
AcDbEntity
  8
0
  6
Continuous
 62
     2
100
AcDbLine
 10
283.926114
 20
141.815849
 30
0.0
 11
284.120838
 21
141.707059
 31
0.0
  0
LINE
  5
11A
100
AcDbEntity
  8
0
  6
Continuous
 62
     2
100
AcDbLine
 10
284.120838
 20
141.707059
 30
0.0
 11
284.316055
 21
141.599746
 31
0.0
  0
LINE
  5
11B
100
AcDbEntity
  8
0
  6
Continuous
 62
     2
100
AcDbLine
 10
284.316055
 20
141.599746
 30
0.0
 11
284.511888
 21
141.494156
 31
0.0
  0
LINE
  5
11C
100
AcDbEntity
  8
0
  6
Continuous
 62
     2
100
AcDbLine
 10
284.511888
 20
141.494156
 30
0.0
 11
284.708457
 21
141.390533
 31
0.0
  0
LINE
  5
11D
100
AcDbEntity
  8
0
  6
Continuous
 62
     2
100
AcDbLine
 10
284.708457
 20
141.390533
 30
0.0
 11
284.905885
 21
141.289123
 31
0.0
  0
LINE
  5
11E
100
AcDbEntity
  8
0
  6
Continuous
 62
     2
100
AcDbLine
 10
284.905885
 20
141.289123
 30
0.0
 11
285.104291
 21
141.19017
 31
0.0
  0
LINE
  5
11F
100
AcDbEntity
  8
0
  6
Continuous
 62
     2
100
AcDbLine
 10
285.104291
 20
141.19017
 30
0.0
 11
285.303798
 21
141.09392
 31
0.0
  0
LINE
  5
120
100
AcDbEntity
  8
0
  6
Continuous
 62
     2
100
AcDbLine
 10
285.303798
 20
141.09392
 30
0.0
 11
285.504527
 21
141.000618
 31
0.0
  0
LINE
  5
121
100
AcDbEntity
  8
0
  6
Continuous
 62
     2
100
AcDbLine
 10
285.504527
 20
141.000618
 30
0.0
 11
285.7066
 21
140.910509
 31
0.0
  0
LINE
  5
122
100
AcDbEntity
  8
0
  6
Continuous
 62
     2
100
AcDbLine
 10
285.7066
 20
140.910509
 30
0.0
 11
285.910138
 21
140.823837
 31
0.0
  0
LINE
  5
123
100
AcDbEntity
  8
0
  6
Continuous
 62
     2
100
AcDbLine
 10
285.910138
 20
140.823837
 30
0.0
 11
286.244769
 21
140.690457
 31
0.0
  0
LINE
  5
124
100
AcDbEntity
  8
0
  6
Continuous
 62
     2
100
AcDbLine
 10
286.244769
 20
140.690457
 30
0.0
 11
286.58322
 21
140.566247
 31
0.0
  0
LINE
  5
125
100
AcDbEntity
  8
0
  6
Continuous
 62
     2
100
AcDbLine
 10
286.58322
 20
140.566247
 30
0.0
 11
286.925106
 21
140.450616
 31
0.0
  0
LINE
  5
126
100
AcDbEntity
  8
0
  6
Continuous
 62
     2
100
AcDbLine
 10
286.925106
 20
140.450616
 30
0.0
 11
287.270042
 21
140.342973
 31
0.0
  0
LINE
  5
127
100
AcDbEntity
  8
0
  6
Continuous
 62
     2
100
AcDbLine
 10
287.270042
 20
140.342973
 30
0.0
 11
287.617643
 21
140.242728
 31
0.0
  0
LINE
  5
128
100
AcDbEntity
  8
0
  6
Continuous
 62
     2
100
AcDbLine
 10
287.617643
 20
140.242728
 30
0.0
 11
287.967526
 21
140.149292
 31
0.0
  0
LINE
  5
129
100
AcDbEntity
  8
0
  6
Continuous
 62
     2
100
AcDbLine
 10
287.967526
 20
140.149292
 30
0.0
 11
288.319306
 21
140.062073
 31
0.0
  0
LINE
  5
12A
100
AcDbEntity
  8
0
  6
Continuous
 62
     2
100
AcDbLine
 10
288.319306
 20
140.062073
 30
0.0
 11
288.672598
 21
139.980483
 31
0.0
  0
LINE
  5
12B
100
AcDbEntity
  8
0
  6
Continuous
 62
     2
100
AcDbLine
 10
288.672598
 20
139.980483
 30
0.0
 11
289.027018
 21
139.90393
 31
0.0
  0
LINE
  5
12C
100
AcDbEntity
  8
0
  6
Continuous
 62
     2
100
AcDbLine
 10
289.027018
 20
139.90393
 30
0.0
 11
289.38218
 21
139.831825
 31
0.0
  0
LINE
  5
12D
100
AcDbEntity
  8
0
  6
Continuous
 62
     2
100
AcDbLine
 10
289.38218
 20
139.831825
 30
0.0
 11
289.608134
 21
139.788078
 31
0.0
  0
LINE
  5
12E
100
AcDbEntity
  8
0
  6
Continuous
 62
     2
100
AcDbLine
 10
289.608134
 20
139.788078
 30
0.0
 11
289.83424
 21
139.745969
 31
0.0
  0
LINE
  5
12F
100
AcDbEntity
  8
0
  6
Continuous
 62
     2
100
AcDbLine
 10
289.83424
 20
139.745969
 30
0.0
 11
290.060509
 21
139.705576
 31
0.0
  0
LINE
  5
130
100
AcDbEntity
  8
0
  6
Continuous
 62
     2
100
AcDbLine
 10
290.060509
 20
139.705576
 30
0.0
 11
290.286948
 21
139.666979
 31
0.0
  0
LINE
  5
131
100
AcDbEntity
  8
0
  6
Continuous
 62
     2
100
AcDbLine
 10
290.286948
 20
139.666979
 30
0.0
 11
290.513566
 21
139.630256
 31
0.0
  0
LINE
  5
132
100
AcDbEntity
  8
0
  6
Continuous
 62
     2
100
AcDbLine
 10
290.513566
 20
139.630256
 30
0.0
 11
290.740371
 21
139.595487
 31
0.0
  0
LINE
  5
133
100
AcDbEntity
  8
0
  6
Continuous
 62
     2
100
AcDbLine
 10
290.740371
 20
139.595487
 30
0.0
 11
290.967372
 21
139.562752
 31
0.0
  0
LINE
  5
134
100
AcDbEntity
  8
0
  6
Continuous
 62
     2
100
AcDbLine
 10
290.967372
 20
139.562752
 30
0.0
 11
291.194578
 21
139.532128
 31
0.0
  0
LINE
  5
135
100
AcDbEntity
  8
0
  6
Continuous
 62
     2
100
AcDbLine
 10
291.194578
 20
139.532128
 30
0.0
 11
291.421996
 21
139.503696
 31
0.0
  0
LINE
  5
136
100
AcDbEntity
  8
0
  6
Continuous
 62
     2
100
AcDbLine
 10
291.421996
 20
139.503696
 30
0.0
 11
291.649636
 21
139.477535
 31
0.0
  0
LINE
  5
137
100
AcDbEntity
  8
0
  6
Continuous
 62
     2
100
AcDbLine
 10
291.649636
 20
139.477535
 30
0.0
 11
292.10061
 21
139.4325
 31
0.0
  0
LINE
  5
138
100
AcDbEntity
  8
0
  6
Continuous
 62
     2
100
AcDbLine
 10
292.10061
 20
139.4325
 30
0.0
 11
292.552391
 21
139.395593
 31
0.0
  0
LINE
  5
139
100
AcDbEntity
  8
0
  6
Continuous
 62
     2
100
AcDbLine
 10
292.552391
 20
139.395593
 30
0.0
 11
293.004885
 21
139.365748
 31
0.0
  0
LINE
  5
13A
100
AcDbEntity
  8
0
  6
Continuous
 62
     2
100
AcDbLine
 10
293.004885
 20
139.365748
 30
0.0
 11
293.458001
 21
139.341898
 31
0.0
  0
LINE
  5
13B
100
AcDbEntity
  8
0
  6
Continuous
 62
     2
100
AcDbLine
 10
293.458001
 20
139.341898
 30
0.0
 11
293.911645
 21
139.322977
 31
0.0
  0
LINE
  5
13C
100
AcDbEntity
  8
0
  6
Continuous
 62
     2
100
AcDbLine
 10
293.911645
 20
139.322977
 30
0.0
 11
294.365725
 21
139.307917
 31
0.0
  0
LINE
  5
13D
100
AcDbEntity
  8
0
  6
Continuous
 62
     2
100
AcDbLine
 10
294.365725
 20
139.307917
 30
0.0
 11
294.820148
 21
139.295652
 31
0.0
  0
LINE
  5
13E
100
AcDbEntity
  8
0
  6
Continuous
 62
     2
100
AcDbLine
 10
294.820148
 20
139.295652
 30
0.0
 11
295.274821
 21
139.285116
 31
0.0
  0
LINE
  5
13F
100
AcDbEntity
  8
0
  6
Continuous
 62
     2
100
AcDbLine
 10
295.274821
 20
139.285116
 30
0.0
 11
295.729652
 21
139.275241
 31
0.0
  0
LINE
  5
140
100
AcDbEntity
  8
0
  6
Continuous
 62
     2
100
AcDbLine
 10
295.729652
 20
139.275241
 30
0.0
 11
296.184549
 21
139.26496
 31
0.0
  0
LINE
  5
141
100
AcDbEntity
  8
0
  6
Continuous
 62
     2
100
AcDbLine
 10
296.184549
 20
139.26496
 30
0.0
 11
296.468537
 21
139.258004
 31
0.0
  0
LINE
  5
142
100
AcDbEntity
  8
0
  6
Continuous
 62
     2
100
AcDbLine
 10
296.468537
 20
139.258004
 30
0.0
 11
296.752485
 21
139.251051
 31
0.0
  0
LINE
  5
143
100
AcDbEntity
  8
0
  6
Continuous
 62
     2
100
AcDbLine
 10
296.752485
 20
139.251051
 30
0.0
 11
297.03636
 21
139.244681
 31
0.0
  0
LINE
  5
144
100
AcDbEntity
  8
0
  6
Continuous
 62
     2
100
AcDbLine
 10
297.03636
 20
139.244681
 30
0.0
 11
297.320131
 21
139.239472
 31
0.0
  0
LINE
  5
145
100
AcDbEntity
  8
0
  6
Continuous
 62
     2
100
AcDbLine
 10
297.320131
 20
139.239472
 30
0.0
 11
297.603769
 21
139.236001
 31
0.0
  0
LINE
  5
146
100
AcDbEntity
  8
0
  6
Continuous
 62
     2
100
AcDbLine
 10
297.603769
 20
139.236001
 30
0.0
 11
297.887242
 21
139.234847
 31
0.0
  0
LINE
  5
147
100
AcDbEntity
  8
0
  6
Continuous
 62
     2
100
AcDbLine
 10
297.887242
 20
139.234847
 30
0.0
 11
298.170519
 21
139.236588
 31
0.0
  0
LINE
  5
148
100
AcDbEntity
  8
0
  6
Continuous
 62
     2
100
AcDbLine
 10
298.170519
 20
139.236588
 30
0.0
 11
298.45357
 21
139.241802
 31
0.0
  0
LINE
  5
149
100
AcDbEntity
  8
0
  6
Continuous
 62
     2
100
AcDbLine
 10
298.45357
 20
139.241802
 30
0.0
 11
298.736363
 21
139.251067
 31
0.0
  0
LINE
  5
14A
100
AcDbEntity
  8
0
  6
Continuous
 62
     2
100
AcDbLine
 10
298.736363
 20
139.251067
 30
0.0
 11
299.018869
 21
139.26496
 31
0.0
  0
LINE
  5
14B
100
AcDbEntity
  8
0
  6
Continuous
 62
     2
100
AcDbLine
 10
299.018869
 20
139.26496
 30
0.0
 11
299.339125
 21
139.286832
 31
0.0
  0
LINE
  5
14C
100
AcDbEntity
  8
0
  6
Continuous
 62
     2
100
AcDbLine
 10
299.339125
 20
139.286832
 30
0.0
 11
299.658997
 21
139.314833
 31
0.0
  0
LINE
  5
14D
100
AcDbEntity
  8
0
  6
Continuous
 62
     2
100
AcDbLine
 10
299.658997
 20
139.314833
 30
0.0
 11
299.978514
 21
139.348385
 31
0.0
  0
LINE
  5
14E
100
AcDbEntity
  8
0
  6
Continuous
 62
     2
100
AcDbLine
 10
299.978514
 20
139.348385
 30
0.0
 11
300.297702
 21
139.38691
 31
0.0
  0
LINE
  5
14F
100
AcDbEntity
  8
0
  6
Continuous
 62
     2
100
AcDbLine
 10
300.297702
 20
139.38691
 30
0.0
 11
300.61659
 21
139.42983
 31
0.0
  0
LINE
  5
150
100
AcDbEntity
  8
0
  6
Continuous
 62
     2
100
AcDbLine
 10
300.61659
 20
139.42983
 30
0.0
 11
300.935205
 21
139.476565
 31
0.0
  0
LINE
  5
151
100
AcDbEntity
  8
0
  6
Continuous
 62
     2
100
AcDbLine
 10
300.935205
 20
139.476565
 30
0.0
 11
301.253573
 21
139.526539
 31
0.0
  0
LINE
  5
152
100
AcDbEntity
  8
0
  6
Continuous
 62
     2
100
AcDbLine
 10
301.253573
 20
139.526539
 30
0.0
 11
301.571724
 21
139.579173
 31
0.0
  0
LINE
  5
153
100
AcDbEntity
  8
0
  6
Continuous
 62
     2
100
AcDbLine
 10
301.571724
 20
139.579173
 30
0.0
 11
301.889683
 21
139.633889
 31
0.0
  0
LINE
  5
154
100
AcDbEntity
  8
0
  6
Continuous
 62
     2
100
AcDbLine
 10
301.889683
 20
139.633889
 30
0.0
 11
302.20748
 21
139.690109
 31
0.0
  0
LINE
  5
155
100
AcDbEntity
  8
0
  6
Continuous
 62
     2
100
AcDbLine
 10
302.20748
 20
139.690109
 30
0.0
 11
302.608161
 21
139.762533
 31
0.0
  0
LINE
  5
156
100
AcDbEntity
  8
0
  6
Continuous
 62
     2
100
AcDbLine
 10
302.608161
 20
139.762533
 30
0.0
 11
303.008449
 21
139.836792
 31
0.0
  0
LINE
  5
157
100
AcDbEntity
  8
0
  6
Continuous
 62
     2
100
AcDbLine
 10
303.008449
 20
139.836792
 30
0.0
 11
303.40817
 21
139.913249
 31
0.0
  0
LINE
  5
158
100
AcDbEntity
  8
0
  6
Continuous
 62
     2
100
AcDbLine
 10
303.40817
 20
139.913249
 30
0.0
 11
303.807147
 21
139.992265
 31
0.0
  0
LINE
  5
159
100
AcDbEntity
  8
0
  6
Continuous
 62
     2
100
AcDbLine
 10
303.807147
 20
139.992265
 30
0.0
 11
304.205203
 21
140.074203
 31
0.0
  0
LINE
  5
15A
100
AcDbEntity
  8
0
  6
Continuous
 62
     2
100
AcDbLine
 10
304.205203
 20
140.074203
 30
0.0
 11
304.602164
 21
140.159426
 31
0.0
  0
LINE
  5
15B
100
AcDbEntity
  8
0
  6
Continuous
 62
     2
100
AcDbLine
 10
304.602164
 20
140.159426
 30
0.0
 11
304.997853
 21
140.248295
 31
0.0
  0
LINE
  5
15C
100
AcDbEntity
  8
0
  6
Continuous
 62
     2
100
AcDbLine
 10
304.997853
 20
140.248295
 30
0.0
 11
305.392094
 21
140.341173
 31
0.0
  0
LINE
  5
15D
100
AcDbEntity
  8
0
  6
Continuous
 62
     2
100
AcDbLine
 10
305.392094
 20
140.341173
 30
0.0
 11
305.784711
 21
140.438422
 31
0.0
  0
LINE
  5
15E
100
AcDbEntity
  8
0
  6
Continuous
 62
     2
100
AcDbLine
 10
305.784711
 20
140.438422
 30
0.0
 11
306.175528
 21
140.540405
 31
0.0
  0
LINE
  5
15F
100
AcDbEntity
  8
0
  6
Continuous
 62
     2
100
AcDbLine
 10
306.175528
 20
140.540405
 30
0.0
 11
308.373008
 21
141.218116
 31
0.0
  0
LINE
  5
160
100
AcDbEntity
  8
0
  6
Continuous
 62
     2
100
AcDbLine
 10
308.373008
 20
141.218116
 30
0.0
 11
310.512377
 21
142.045706
 31
0.0
  0
LINE
  5
161
100
AcDbEntity
  8
0
  6
Continuous
 62
     2
100
AcDbLine
 10
310.512377
 20
142.045706
 30
0.0
 11
312.600092
 21
143.006523
 31
0.0
  0
LINE
  5
162
100
AcDbEntity
  8
0
  6
Continuous
 62
     2
100
AcDbLine
 10
312.600092
 20
143.006523
 30
0.0
 11
314.64261
 21
144.083914
 31
0.0
  0
LINE
  5
163
100
AcDbEntity
  8
0
  6
Continuous
 62
     2
100
AcDbLine
 10
314.64261
 20
144.083914
 30
0.0
 11
316.646387
 21
145.261224
 31
0.0
  0
LINE
  5
164
100
AcDbEntity
  8
0
  6
Continuous
 62
     2
100
AcDbLine
 10
316.646387
 20
145.261224
 30
0.0
 11
318.617881
 21
146.521801
 31
0.0
  0
LINE
  5
165
100
AcDbEntity
  8
0
  6
Continuous
 62
     2
100
AcDbLine
 10
318.617881
 20
146.521801
 30
0.0
 11
320.563548
 21
147.848991
 31
0.0
  0
LINE
  5
166
100
AcDbEntity
  8
0
  6
Continuous
 62
     2
100
AcDbLine
 10
320.563548
 20
147.848991
 30
0.0
 11
322.489845
 21
149.226141
 31
0.0
  0
LINE
  5
167
100
AcDbEntity
  8
0
  6
Continuous
 62
     2
100
AcDbLine
 10
322.489845
 20
149.226141
 30
0.0
 11
324.403228
 21
150.636597
 31
0.0
  0
LINE
  5
168
100
AcDbEntity
  8
0
  6
Continuous
 62
     2
100
AcDbLine
 10
324.403228
 20
150.636597
 30
0.0
 11
326.310155
 21
152.063707
 31
0.0
  0
ARC
  5
169
100
AcDbEntity
  8
0
  6
Continuous
 62
     2
100
AcDbCircle
 10
259.275628
 20
152.021277
 30
0.0
 40
0.3
100
AcDbArc
 50
0.0
 51
88.567903
  0
ARC
  5
16A
100
AcDbEntity
  8
0
  6
Continuous
 62
     2
100
AcDbCircle
 10
259.275628
 20
108.906154
 30
0.0
 40
0.3
100
AcDbArc
 50
271.43209
 51
0.0
  0
ARC
  5
16B
100
AcDbEntity
  8
0
  6
Continuous
 62
     2
100
AcDbCircle
 10
346.675628
 20
152.021277
 30
0.0
 40
0.3
100
AcDbArc
 50
91.432096
 51
180.0
  0
ARC
  5
16C
100
AcDbEntity
  8
0
  6
Continuous
 62
     2
100
AcDbCircle
 10
346.675628
 20
108.906154
 30
0.0
 40
0.3
100
AcDbArc
 50
180.0
 51
268.5679
  0
ARC
  5
16D
100
AcDbEntity
  8
0
  6
Continuous
 62
     2
100
AcDbCircle
 10
317.326658
 20
189.689257
 30
0.0
 40
0.3
100
AcDbArc
 50
136.43209
 51
225.0
  0
ARC
  5
16E
100
AcDbEntity
  8
0
  6
Continuous
 62
     2
100
AcDbCircle
 10
340.601168
 20
166.414747
 30
0.0
 40
0.3
100
AcDbArc
 50
225.0
 51
313.5679
  0
ARC
  5
16F
100
AcDbEntity
  8
0
  6
Continuous
 62
     4
100
AcDbCircle
 10
281.37563
 20
130.463709
 30
0.0
 40
20.179722
100
AcDbArc
 50
0.0
 51
45.0
  0
TEXT
  5
170
100
AcDbEntity
  8
0
 62
     7
100
AcDbText
 10
332.378728
 20
62.018109
 30
0.0
 40
4.0
  1
東都積水株式会社
 41
0.7695
  7
FontTableH_0
 72
     5
 11
364.378728
 21
62.018109
 31
0.0
100
AcDbText
  0
TEXT
  5
171
100
AcDbEntity
  8
0
 62
     7
100
AcDbText
 10
333.512538
 20
54.858429
 30
0.0
 40
3.0
  1
スリーブタイプ
 41
0.7695
  7
FontTableH_0
 72
     5
 11
354.512538
 21
54.858429
 31
0.0
100
AcDbText
  0
TEXT
  5
172
100
AcDbEntity
  8
0
 62
     7
100
AcDbText
 10
103.271298
 20
227.762057
 30
0.0
 40
3.0
  1
呼称
 41
0.7695
  7
FontTableH_0
 72
     5
 11
109.271298
 21
227.762057
 31
0.0
100
AcDbText
  0
TEXT
  5
173
100
AcDbEntity
  8
0
 62
     7
100
AcDbText
 10
116.546745
 20
227.622187
 30
0.0
 40
3.0
  1
φＡ
 41
0.7695
  7
FontTableH_0
 72
     5
 11
122.546745
 21
227.622187
 31
0.0
100
AcDbText
  0
TEXT
  5
174
100
AcDbEntity
  8
0
 62
     7
100
AcDbText
 10
129.771328
 20
227.622187
 30
0.0
 40
3.0
  1
φＢ
 41
0.7695
  7
FontTableH_0
 72
     5
 11
135.771328
 21
227.622187
 31
0.0
100
AcDbText
  0
TEXT
  5
175
100
AcDbEntity
  8
0
 62
     7
100
AcDbText
 10
118.347112
 20
223.798927
 30
0.0
 40
2.5
  1
165
 41
0.7695
  7
FontTableH_0
 72
     5
 11
123.972112
 21
223.798927
 31
0.0
100
AcDbText
  0
TEXT
  5
176
100
AcDbEntity
  8
0
 62
     7
100
AcDbText
 10
118.347112
 20
220.773927
 30
0.0
 40
2.5
  1
165
 41
0.7695
  7
FontTableH_0
 72
     5
 11
123.972112
 21
220.773927
 31
0.0
100
AcDbText
  0
TEXT
  5
177
100
AcDbEntity
  8
0
 62
     7
100
AcDbText
 10
118.347112
 20
217.748927
 30
0.0
 40
2.5
  1
165
 41
0.7695
  7
FontTableH_0
 72
     5
 11
123.972112
 21
217.748927
 31
0.0
100
AcDbText
  0
TEXT
  5
178
100
AcDbEntity
  8
0
 62
     7
100
AcDbText
 10
131.547112
 20
223.798927
 30
0.0
 40
2.5
  1
165
 41
0.7695
  7
FontTableH_0
 72
     5
 11
137.172112
 21
223.798927
 31
0.0
100
AcDbText
  0
TEXT
  5
179
100
AcDbEntity
  8
0
 62
     7
100
AcDbText
 10
131.547112
 20
211.698927
 30
0.0
 40
2.5
  1
165
 41
0.7695
  7
FontTableH_0
 72
     5
 11
137.172112
 21
211.698927
 31
0.0
100
AcDbText
  0
TEXT
  5
17A
100
AcDbEntity
  8
0
 62
     7
100
AcDbText
 10
131.547112
 20
196.573927
 30
0.0
 40
2.5
  1
165
 41
0.7695
  7
FontTableH_0
 72
     5
 11
137.172112
 21
196.573927
 31
0.0
100
AcDbText
  0
TEXT
  5
17B
100
AcDbEntity
  8
0
 62
     7
100
AcDbText
 10
131.547112
 20
181.448927
 30
0.0
 40
2.5
  1
165
 41
0.7695
  7
FontTableH_0
 72
     5
 11
137.172112
 21
181.448927
 31
0.0
100
AcDbText
  0
TEXT
  5
17C
100
AcDbEntity
  8
0
 62
     7
100
AcDbText
 10
131.547112
 20
163.298927
 30
0.0
 40
2.5
  1
165
 41
0.7695
  7
FontTableH_0
 72
     5
 11
137.172112
 21
163.298927
 31
0.0
100
AcDbText
  0
TEXT
  5
17D
100
AcDbEntity
  8
0
 62
     7
100
AcDbText
 10
131.547112
 20
96.748928
 30
0.0
 40
2.5
  1
165
 41
0.7695
  7
FontTableH_0
 72
     5
 11
137.172112
 21
96.748928
 31
0.0
100
AcDbText
  0
TEXT
  5
17E
100
AcDbEntity
  8
0
 62
     7
100
AcDbText
 10
131.547112
 20
69.523928
 30
0.0
 40
2.5
  1
165
 41
0.7695
  7
FontTableH_0
 72
     5
 11
137.172112
 21
69.523928
 31
0.0
100
AcDbText
  0
TEXT
  5
17F
100
AcDbEntity
  8
0
 62
     7
100
AcDbText
 10
118.347112
 20
214.723927
 30
0.0
 40
2.5
  1
216
 41
0.7695
  7
FontTableH_0
 72
     5
 11
123.972112
 21
214.723927
 31
0.0
100
AcDbText
  0
TEXT
  5
180
100
AcDbEntity
  8
0
 62
     7
100
AcDbText
 10
118.347112
 20
211.698927
 30
0.0
 40
2.5
  1
216
 41
0.7695
  7
FontTableH_0
 72
     5
 11
123.972112
 21
211.698927
 31
0.0
100
AcDbText
  0
TEXT
  5
181
100
AcDbEntity
  8
0
 62
     7
100
AcDbText
 10
118.347112
 20
208.673927
 30
0.0
 40
2.5
  1
216
 41
0.7695
  7
FontTableH_0
 72
     5
 11
123.972112
 21
208.673927
 31
0.0
100
AcDbText
  0
TEXT
  5
182
100
AcDbEntity
  8
0
 62
     7
100
AcDbText
 10
118.347112
 20
205.648927
 30
0.0
 40
2.5
  1
216
 41
0.7695
  7
FontTableH_0
 72
     5
 11
123.972112
 21
205.648927
 31
0.0
100
AcDbText
  0
TEXT
  5
183
100
AcDbEntity
  8
0
 62
     7
100
AcDbText
 10
118.347112
 20
202.623927
 30
0.0
 40
2.5
  1
267
 41
0.7695
  7
FontTableH_0
 72
     5
 11
123.972112
 21
202.623927
 31
0.0
100
AcDbText
  0
TEXT
  5
184
100
AcDbEntity
  8
0
 62
     7
100
AcDbText
 10
118.347112
 20
199.598927
 30
0.0
 40
2.5
  1
267
 41
0.7695
  7
FontTableH_0
 72
     5
 11
123.972112
 21
199.598927
 31
0.0
100
AcDbText
  0
TEXT
  5
185
100
AcDbEntity
  8
0
 62
     7
100
AcDbText
 10
118.347112
 20
196.573927
 30
0.0
 40
2.5
  1
267
 41
0.7695
  7
FontTableH_0
 72
     5
 11
123.972112
 21
196.573927
 31
0.0
100
AcDbText
  0
TEXT
  5
186
100
AcDbEntity
  8
0
 62
     7
100
AcDbText
 10
118.347112
 20
193.548927
 30
0.0
 40
2.5
  1
267
 41
0.7695
  7
FontTableH_0
 72
     5
 11
123.972112
 21
193.548927
 31
0.0
100
AcDbText
  0
TEXT
  5
187
100
AcDbEntity
  8
0
 62
     7
100
AcDbText
 10
118.347112
 20
190.523927
 30
0.0
 40
2.5
  1
318
 41
0.7695
  7
FontTableH_0
 72
     5
 11
123.972112
 21
190.523927
 31
0.0
100
AcDbText
  0
TEXT
  5
188
100
AcDbEntity
  8
0
 62
     7
100
AcDbText
 10
118.347112
 20
187.498927
 30
0.0
 40
2.5
  1
318
 41
0.7695
  7
FontTableH_0
 72
     5
 11
123.972112
 21
187.498927
 31
0.0
100
AcDbText
  0
TEXT
  5
189
100
AcDbEntity
  8
0
 62
     7
100
AcDbText
 10
118.347112
 20
184.473927
 30
0.0
 40
2.5
  1
318
 41
0.7695
  7
FontTableH_0
 72
     5
 11
123.972112
 21
184.473927
 31
0.0
100
AcDbText
  0
TEXT
  5
18A
100
AcDbEntity
  8
0
 62
     7
100
AcDbText
 10
118.347112
 20
181.448927
 30
0.0
 40
2.5
  1
318
 41
0.7695
  7
FontTableH_0
 72
     5
 11
123.972112
 21
181.448927
 31
0.0
100
AcDbText
  0
TEXT
  5
18B
100
AcDbEntity
  8
0
 62
     7
100
AcDbText
 10
118.347112
 20
178.423927
 30
0.0
 40
2.5
  1
318
 41
0.7695
  7
FontTableH_0
 72
     5
 11
123.972112
 21
178.423927
 31
0.0
100
AcDbText
  0
TEXT
  5
18C
100
AcDbEntity
  8
0
 62
     7
100
AcDbText
 10
118.347112
 20
175.398927
 30
0.0
 40
2.5
  1
370
 41
0.7695
  7
FontTableH_0
 72
     5
 11
123.972112
 21
175.398927
 31
0.0
100
AcDbText
  0
TEXT
  5
18D
100
AcDbEntity
  8
0
 62
     7
100
AcDbText
 10
118.347112
 20
172.373927
 30
0.0
 40
2.5
  1
370
 41
0.7695
  7
FontTableH_0
 72
     5
 11
123.972112
 21
172.373927
 31
0.0
100
AcDbText
  0
TEXT
  5
18E
100
AcDbEntity
  8
0
 62
     7
100
AcDbText
 10
118.347112
 20
169.348927
 30
0.0
 40
2.5
  1
370
 41
0.7695
  7
FontTableH_0
 72
     5
 11
123.972112
 21
169.348927
 31
0.0
100
AcDbText
  0
TEXT
  5
18F
100
AcDbEntity
  8
0
 62
     7
100
AcDbText
 10
118.347112
 20
166.323927
 30
0.0
 40
2.5
  1
370
 41
0.7695
  7
FontTableH_0
 72
     5
 11
123.972112
 21
166.323927
 31
0.0
100
AcDbText
  0
TEXT
  5
190
100
AcDbEntity
  8
0
 62
     7
100
AcDbText
 10
118.347112
 20
163.298927
 30
0.0
 40
2.5
  1
370
 41
0.7695
  7
FontTableH_0
 72
     5
 11
123.972112
 21
163.298927
 31
0.0
100
AcDbText
  0
TEXT
  5
191
100
AcDbEntity
  8
0
 62
     7
100
AcDbText
 10
118.347112
 20
160.273927
 30
0.0
 40
2.5
  1
370
 41
0.7695
  7
FontTableH_0
 72
     5
 11
123.972112
 21
160.273927
 31
0.0
100
AcDbText
  0
TEXT
  5
192
100
AcDbEntity
  8
0
 62
     7
100
AcDbText
 10
118.347112
 20
157.248927
 30
0.0
 40
2.5
  1
420
 41
0.7695
  7
FontTableH_0
 72
     5
 11
123.972112
 21
157.248927
 31
0.0
100
AcDbText
  0
TEXT
  5
193
100
AcDbEntity
  8
0
 62
     7
100
AcDbText
 10
118.347112
 20
154.223927
 30
0.0
 40
2.5
  1
420
 41
0.7695
  7
FontTableH_0
 72
     5
 11
123.972112
 21
154.223927
 31
0.0
100
AcDbText
  0
TEXT
  5
194
100
AcDbEntity
  8
0
 62
     7
100
AcDbText
 10
118.347112
 20
151.198927
 30
0.0
 40
2.5
  1
420
 41
0.7695
  7
FontTableH_0
 72
     5
 11
123.972112
 21
151.198927
 31
0.0
100
AcDbText
  0
TEXT
  5
195
100
AcDbEntity
  8
0
 62
     7
100
AcDbText
 10
118.347112
 20
148.173927
 30
0.0
 40
2.5
  1
420
 41
0.7695
  7
FontTableH_0
 72
     5
 11
123.972112
 21
148.173927
 31
0.0
100
AcDbText
  0
TEXT
  5
196
100
AcDbEntity
  8
0
 62
     7
100
AcDbText
 10
118.347112
 20
145.148927
 30
0.0
 40
2.5
  1
420
 41
0.7695
  7
FontTableH_0
 72
     5
 11
123.972112
 21
145.148927
 31
0.0
100
AcDbText
  0
TEXT
  5
197
100
AcDbEntity
  8
0
 62
     7
100
AcDbText
 10
118.347112
 20
142.123927
 30
0.0
 40
2.5
  1
420
 41
0.7695
  7
FontTableH_0
 72
     5
 11
123.972112
 21
142.123927
 31
0.0
100
AcDbText
  0
TEXT
  5
198
100
AcDbEntity
  8
0
 62
     7
100
AcDbText
 10
118.347112
 20
139.098927
 30
0.0
 40
2.5
  1
470
 41
0.7695
  7
FontTableH_0
 72
     5
 11
123.972112
 21
139.098927
 31
0.0
100
AcDbText
  0
TEXT
  5
199
100
AcDbEntity
  8
0
 62
     7
100
AcDbText
 10
118.347112
 20
136.073928
 30
0.0
 40
2.5
  1
470
 41
0.7695
  7
FontTableH_0
 72
     5
 11
123.972112
 21
136.073928
 31
0.0
100
AcDbText
  0
TEXT
  5
19A
100
AcDbEntity
  8
0
 62
     7
100
AcDbText
 10
118.347112
 20
133.048928
 30
0.0
 40
2.5
  1
470
 41
0.7695
  7
FontTableH_0
 72
     5
 11
123.972112
 21
133.048928
 31
0.0
100
AcDbText
  0
TEXT
  5
19B
100
AcDbEntity
  8
0
 62
     7
100
AcDbText
 10
118.347112
 20
130.023928
 30
0.0
 40
2.5
  1
470
 41
0.7695
  7
FontTableH_0
 72
     5
 11
123.972112
 21
130.023928
 31
0.0
100
AcDbText
  0
TEXT
  5
19C
100
AcDbEntity
  8
0
 62
     7
100
AcDbText
 10
118.347112
 20
126.998928
 30
0.0
 40
2.5
  1
470
 41
0.7695
  7
FontTableH_0
 72
     5
 11
123.972112
 21
126.998928
 31
0.0
100
AcDbText
  0
TEXT
  5
19D
100
AcDbEntity
  8
0
 62
     7
100
AcDbText
 10
118.347112
 20
123.973928
 30
0.0
 40
2.5
  1
470
 41
0.7695
  7
FontTableH_0
 72
     5
 11
123.972112
 21
123.973928
 31
0.0
100
AcDbText
  0
TEXT
  5
19E
100
AcDbEntity
  8
0
 62
     7
100
AcDbText
 10
118.347112
 20
120.948928
 30
0.0
 40
2.5
  1
470
 41
0.7695
  7
FontTableH_0
 72
     5
 11
123.972112
 21
120.948928
 31
0.0
100
AcDbText
  0
TEXT
  5
19F
100
AcDbEntity
  8
0
 62
     7
100
AcDbText
 10
118.347112
 20
117.923928
 30
0.0
 40
2.5
  1
520
 41
0.7695
  7
FontTableH_0
 72
     5
 11
123.972112
 21
117.923928
 31
0.0
100
AcDbText
  0
TEXT
  5
1A0
100
AcDbEntity
  8
0
 62
     7
100
AcDbText
 10
118.347112
 20
114.898928
 30
0.0
 40
2.5
  1
520
 41
0.7695
  7
FontTableH_0
 72
     5
 11
123.972112
 21
114.898928
 31
0.0
100
AcDbText
  0
TEXT
  5
1A1
100
AcDbEntity
  8
0
 62
     7
100
AcDbText
 10
118.347112
 20
111.873928
 30
0.0
 40
2.5
  1
520
 41
0.7695
  7
FontTableH_0
 72
     5
 11
123.972112
 21
111.873928
 31
0.0
100
AcDbText
  0
TEXT
  5
1A2
100
AcDbEntity
  8
0
 62
     7
100
AcDbText
 10
118.347112
 20
108.848928
 30
0.0
 40
2.5
  1
520
 41
0.7695
  7
FontTableH_0
 72
     5
 11
123.972112
 21
108.848928
 31
0.0
100
AcDbText
  0
TEXT
  5
1A3
100
AcDbEntity
  8
0
 62
     7
100
AcDbText
 10
118.347112
 20
105.823928
 30
0.0
 40
2.5
  1
520
 41
0.7695
  7
FontTableH_0
 72
     5
 11
123.972112
 21
105.823928
 31
0.0
100
AcDbText
  0
TEXT
  5
1A4
100
AcDbEntity
  8
0
 62
     7
100
AcDbText
 10
118.347112
 20
102.798928
 30
0.0
 40
2.5
  1
520
 41
0.7695
  7
FontTableH_0
 72
     5
 11
123.972112
 21
102.798928
 31
0.0
100
AcDbText
  0
TEXT
  5
1A5
100
AcDbEntity
  8
0
 62
     7
100
AcDbText
 10
118.347112
 20
99.773928
 30
0.0
 40
2.5
  1
520
 41
0.7695
  7
FontTableH_0
 72
     5
 11
123.972112
 21
99.773928
 31
0.0
100
AcDbText
  0
TEXT
  5
1A6
100
AcDbEntity
  8
0
 62
     7
100
AcDbText
 10
118.347112
 20
96.748928
 30
0.0
 40
2.5
  1
520
 41
0.7695
  7
FontTableH_0
 72
     5
 11
123.972112
 21
96.748928
 31
0.0
100
AcDbText
  0
TEXT
  5
1A7
100
AcDbEntity
  8
0
 62
     7
100
AcDbText
 10
118.347112
 20
93.723928
 30
0.0
 40
2.5
  1
612
 41
0.7695
  7
FontTableH_0
 72
     5
 11
123.972112
 21
93.723928
 31
0.0
100
AcDbText
  0
TEXT
  5
1A8
100
AcDbEntity
  8
0
 62
     7
100
AcDbText
 10
118.347112
 20
90.698928
 30
0.0
 40
2.5
  1
612
 41
0.7695
  7
FontTableH_0
 72
     5
 11
123.972112
 21
90.698928
 31
0.0
100
AcDbText
  0
TEXT
  5
1A9
100
AcDbEntity
  8
0
 62
     7
100
AcDbText
 10
118.347112
 20
87.673928
 30
0.0
 40
2.5
  1
612
 41
0.7695
  7
FontTableH_0
 72
     5
 11
123.972112
 21
87.673928
 31
0.0
100
AcDbText
  0
TEXT
  5
1AA
100
AcDbEntity
  8
0
 62
     7
100
AcDbText
 10
118.347112
 20
84.648928
 30
0.0
 40
2.5
  1
612
 41
0.7695
  7
FontTableH_0
 72
     5
 11
123.972112
 21
84.648928
 31
0.0
100
AcDbText
  0
TEXT
  5
1AB
100
AcDbEntity
  8
0
 62
     7
100
AcDbText
 10
118.347112
 20
81.623928
 30
0.0
 40
2.5
  1
612
 41
0.7695
  7
FontTableH_0
 72
     5
 11
123.972112
 21
81.623928
 31
0.0
100
AcDbText
  0
TEXT
  5
1AC
100
AcDbEntity
  8
0
 62
     7
100
AcDbText
 10
118.347112
 20
78.598928
 30
0.0
 40
2.5
  1
612
 41
0.7695
  7
FontTableH_0
 72
     5
 11
123.972112
 21
78.598928
 31
0.0
100
AcDbText
  0
TEXT
  5
1AD
100
AcDbEntity
  8
0
 62
     7
100
AcDbText
 10
118.347112
 20
75.573928
 30
0.0
 40
2.5
  1
612
 41
0.7695
  7
FontTableH_0
 72
     5
 11
123.972112
 21
75.573928
 31
0.0
100
AcDbText
  0
TEXT
  5
1AE
100
AcDbEntity
  8
0
 62
     7
100
AcDbText
 10
118.347112
 20
72.548928
 30
0.0
 40
2.5
  1
612
 41
0.7695
  7
FontTableH_0
 72
     5
 11
123.972112
 21
72.548928
 31
0.0
100
AcDbText
  0
TEXT
  5
1AF
100
AcDbEntity
  8
0
 62
     7
100
AcDbText
 10
118.347112
 20
69.523928
 30
0.0
 40
2.5
  1
612
 41
0.7695
  7
FontTableH_0
 72
     5
 11
123.972112
 21
69.523928
 31
0.0
100
AcDbText
  0
TEXT
  5
1B0
100
AcDbEntity
  8
0
 62
     7
100
AcDbText
 10
131.547112
 20
220.773927
 30
0.0
 40
2.5
  1
140
 41
0.7695
  7
FontTableH_0
 72
     5
 11
137.172112
 21
220.773927
 31
0.0
100
AcDbText
  0
TEXT
  5
1B1
100
AcDbEntity
  8
0
 62
     7
100
AcDbText
 10
131.547112
 20
217.748927
 30
0.0
 40
2.5
  1
114
 41
0.7695
  7
FontTableH_0
 72
     5
 11
137.172112
 21
217.748927
 31
0.0
100
AcDbText
  0
TEXT
  5
1B2
100
AcDbEntity
  8
0
 62
     7
100
AcDbText
 10
131.547112
 20
214.723927
 30
0.0
 40
2.5
  1
216
 41
0.7695
  7
FontTableH_0
 72
     5
 11
137.172112
 21
214.723927
 31
0.0
100
AcDbText
  0
TEXT
  5
1B3
100
AcDbEntity
  8
0
 62
     7
100
AcDbText
 10
131.547112
 20
208.673927
 30
0.0
 40
2.5
  1
140
 41
0.7695
  7
FontTableH_0
 72
     5
 11
137.172112
 21
208.673927
 31
0.0
100
AcDbText
  0
TEXT
  5
1B4
100
AcDbEntity
  8
0
 62
     7
100
AcDbText
 10
131.547112
 20
205.648927
 30
0.0
 40
2.5
  1
114
 41
0.7695
  7
FontTableH_0
 72
     5
 11
137.172112
 21
205.648927
 31
0.0
100
AcDbText
  0
TEXT
  5
1B5
100
AcDbEntity
  8
0
 62
     7
100
AcDbText
 10
131.547112
 20
202.623927
 30
0.0
 40
2.5
  1
267
 41
0.7695
  7
FontTableH_0
 72
     5
 11
137.172112
 21
202.623927
 31
0.0
100
AcDbText
  0
TEXT
  5
1B6
100
AcDbEntity
  8
0
 62
     7
100
AcDbText
 10
131.547112
 20
199.598927
 30
0.0
 40
2.5
  1
216
 41
0.7695
  7
FontTableH_0
 72
     5
 11
137.172112
 21
199.598927
 31
0.0
100
AcDbText
  0
TEXT
  5
1B7
100
AcDbEntity
  8
0
 62
     7
100
AcDbText
 10
131.547112
 20
193.548927
 30
0.0
 40
2.5
  1
140
 41
0.7695
  7
FontTableH_0
 72
     5
 11
137.172112
 21
193.548927
 31
0.0
100
AcDbText
  0
TEXT
  5
1B8
100
AcDbEntity
  8
0
 62
     7
100
AcDbText
 10
131.547112
 20
190.523927
 30
0.0
 40
2.5
  1
318
 41
0.7695
  7
FontTableH_0
 72
     5
 11
137.172112
 21
190.523927
 31
0.0
100
AcDbText
  0
TEXT
  5
1B9
100
AcDbEntity
  8
0
 62
     7
100
AcDbText
 10
131.547112
 20
187.498927
 30
0.0
 40
2.5
  1
267
 41
0.7695
  7
FontTableH_0
 72
     5
 11
137.172112
 21
187.498927
 31
0.0
100
AcDbText
  0
TEXT
  5
1BA
100
AcDbEntity
  8
0
 62
     7
100
AcDbText
 10
131.547112
 20
184.473927
 30
0.0
 40
2.5
  1
216
 41
0.7695
  7
FontTableH_0
 72
     5
 11
137.172112
 21
184.473927
 31
0.0
100
AcDbText
  0
TEXT
  5
1BB
100
AcDbEntity
  8
0
 62
     7
100
AcDbText
 10
131.547112
 20
178.423927
 30
0.0
 40
2.5
  1
140
 41
0.7695
  7
FontTableH_0
 72
     5
 11
137.172112
 21
178.423927
 31
0.0
100
AcDbText
  0
TEXT
  5
1BC
100
AcDbEntity
  8
0
 62
     7
100
AcDbText
 10
131.547112
 20
175.398927
 30
0.0
 40
2.5
  1
370
 41
0.7695
  7
FontTableH_0
 72
     5
 11
137.172112
 21
175.398927
 31
0.0
100
AcDbText
  0
TEXT
  5
1BD
100
AcDbEntity
  8
0
 62
     7
100
AcDbText
 10
131.547112
 20
172.373927
 30
0.0
 40
2.5
  1
318
 41
0.7695
  7
FontTableH_0
 72
     5
 11
137.172112
 21
172.373927
 31
0.0
100
AcDbText
  0
TEXT
  5
1BE
100
AcDbEntity
  8
0
 62
     7
100
AcDbText
 10
131.547112
 20
169.348927
 30
0.0
 40
2.5
  1
267
 41
0.7695
  7
FontTableH_0
 72
     5
 11
137.172112
 21
169.348927
 31
0.0
100
AcDbText
  0
TEXT
  5
1BF
100
AcDbEntity
  8
0
 62
     7
100
AcDbText
 10
131.547112
 20
166.323927
 30
0.0
 40
2.5
  1
216
 41
0.7695
  7
FontTableH_0
 72
     5
 11
137.172112
 21
166.323927
 31
0.0
100
AcDbText
  0
TEXT
  5
1C0
100
AcDbEntity
  8
0
 62
     7
100
AcDbText
 10
131.547112
 20
160.273927
 30
0.0
 40
2.5
  1
140
 41
0.7695
  7
FontTableH_0
 72
     5
 11
137.172112
 21
160.273927
 31
0.0
100
AcDbText
  0
TEXT
  5
1C1
100
AcDbEntity
  8
0
 62
     7
100
AcDbText
 10
131.547112
 20
157.248927
 30
0.0
 40
2.5
  1
420
 41
0.7695
  7
FontTableH_0
 72
     5
 11
137.172112
 21
157.248927
 31
0.0
100
AcDbText
  0
TEXT
  5
1C2
100
AcDbEntity
  8
0
 62
     7
100
AcDbText
 10
131.547112
 20
154.223927
 30
0.0
 40
2.5
  1
370
 41
0.7695
  7
FontTableH_0
 72
     5
 11
137.172112
 21
154.223927
 31
0.0
100
AcDbText
  0
TEXT
  5
1C3
100
AcDbEntity
  8
0
 62
     7
100
AcDbText
 10
131.547112
 20
151.198927
 30
0.0
 40
2.5
  1
318
 41
0.7695
  7
FontTableH_0
 72
     5
 11
137.172112
 21
151.198927
 31
0.0
100
AcDbText
  0
TEXT
  5
1C4
100
AcDbEntity
  8
0
 62
     7
100
AcDbText
 10
131.547112
 20
148.173927
 30
0.0
 40
2.5
  1
267
 41
0.7695
  7
FontTableH_0
 72
     5
 11
137.172112
 21
148.173927
 31
0.0
100
AcDbText
  0
TEXT
  5
1C5
100
AcDbEntity
  8
0
 62
     7
100
AcDbText
 10
131.547112
 20
145.148927
 30
0.0
 40
2.5
  1
216
 41
0.7695
  7
FontTableH_0
 72
     5
 11
137.172112
 21
145.148927
 31
0.0
100
AcDbText
  0
TEXT
  5
1C6
100
AcDbEntity
  8
0
 62
     7
100
AcDbText
 10
131.547112
 20
142.123927
 30
0.0
 40
2.5
  1
165
 41
0.7695
  7
FontTableH_0
 72
     5
 11
137.172112
 21
142.123927
 31
0.0
100
AcDbText
  0
TEXT
  5
1C7
100
AcDbEntity
  8
0
 62
     7
100
AcDbText
 10
131.547112
 20
139.098927
 30
0.0
 40
2.5
  1
470
 41
0.7695
  7
FontTableH_0
 72
     5
 11
137.172112
 21
139.098927
 31
0.0
100
AcDbText
  0
TEXT
  5
1C8
100
AcDbEntity
  8
0
 62
     7
100
AcDbText
 10
131.547112
 20
136.073928
 30
0.0
 40
2.5
  1
420
 41
0.7695
  7
FontTableH_0
 72
     5
 11
137.172112
 21
136.073928
 31
0.0
100
AcDbText
  0
TEXT
  5
1C9
100
AcDbEntity
  8
0
 62
     7
100
AcDbText
 10
131.547112
 20
133.048928
 30
0.0
 40
2.5
  1
370
 41
0.7695
  7
FontTableH_0
 72
     5
 11
137.172112
 21
133.048928
 31
0.0
100
AcDbText
  0
TEXT
  5
1CA
100
AcDbEntity
  8
0
 62
     7
100
AcDbText
 10
131.547112
 20
130.023928
 30
0.0
 40
2.5
  1
318
 41
0.7695
  7
FontTableH_0
 72
     5
 11
137.172112
 21
130.023928
 31
0.0
100
AcDbText
  0
TEXT
  5
1CB
100
AcDbEntity
  8
0
 62
     7
100
AcDbText
 10
131.547112
 20
126.998928
 30
0.0
 40
2.5
  1
267
 41
0.7695
  7
FontTableH_0
 72
     5
 11
137.172112
 21
126.998928
 31
0.0
100
AcDbText
  0
TEXT
  5
1CC
100
AcDbEntity
  8
0
 62
     7
100
AcDbText
 10
131.547112
 20
123.973928
 30
0.0
 40
2.5
  1
216
 41
0.7695
  7
FontTableH_0
 72
     5
 11
137.172112
 21
123.973928
 31
0.0
100
AcDbText
  0
TEXT
  5
1CD
100
AcDbEntity
  8
0
 62
     7
100
AcDbText
 10
131.547112
 20
120.948928
 30
0.0
 40
2.5
  1
165
 41
0.7695
  7
FontTableH_0
 72
     5
 11
137.172112
 21
120.948928
 31
0.0
100
AcDbText
  0
TEXT
  5
1CE
100
AcDbEntity
  8
0
 62
     7
100
AcDbText
 10
131.547112
 20
117.923928
 30
0.0
 40
2.5
  1
520
 41
0.7695
  7
FontTableH_0
 72
     5
 11
137.172112
 21
117.923928
 31
0.0
100
AcDbText
  0
TEXT
  5
1CF
100
AcDbEntity
  8
0
 62
     7
100
AcDbText
 10
131.547112
 20
114.898928
 30
0.0
 40
2.5
  1
470
 41
0.7695
  7
FontTableH_0
 72
     5
 11
137.172112
 21
114.898928
 31
0.0
100
AcDbText
  0
TEXT
  5
1D0
100
AcDbEntity
  8
0
 62
     7
100
AcDbText
 10
131.547112
 20
111.873928
 30
0.0
 40
2.5
  1
420
 41
0.7695
  7
FontTableH_0
 72
     5
 11
137.172112
 21
111.873928
 31
0.0
100
AcDbText
  0
TEXT
  5
1D1
100
AcDbEntity
  8
0
 62
     7
100
AcDbText
 10
131.547112
 20
108.848928
 30
0.0
 40
2.5
  1
370
 41
0.7695
  7
FontTableH_0
 72
     5
 11
137.172112
 21
108.848928
 31
0.0
100
AcDbText
  0
TEXT
  5
1D2
100
AcDbEntity
  8
0
 62
     7
100
AcDbText
 10
131.547112
 20
105.823928
 30
0.0
 40
2.5
  1
318
 41
0.7695
  7
FontTableH_0
 72
     5
 11
137.172112
 21
105.823928
 31
0.0
100
AcDbText
  0
TEXT
  5
1D3
100
AcDbEntity
  8
0
 62
     7
100
AcDbText
 10
131.547112
 20
102.798928
 30
0.0
 40
2.5
  1
267
 41
0.7695
  7
FontTableH_0
 72
     5
 11
137.172112
 21
102.798928
 31
0.0
100
AcDbText
  0
TEXT
  5
1D4
100
AcDbEntity
  8
0
 62
     7
100
AcDbText
 10
131.547112
 20
99.773928
 30
0.0
 40
2.5
  1
216
 41
0.7695
  7
FontTableH_0
 72
     5
 11
137.172112
 21
99.773928
 31
0.0
100
AcDbText
  0
TEXT
  5
1D5
100
AcDbEntity
  8
0
 62
     7
100
AcDbText
 10
131.547112
 20
93.723928
 30
0.0
 40
2.5
  1
612
 41
0.7695
  7
FontTableH_0
 72
     5
 11
137.172112
 21
93.723928
 31
0.0
100
AcDbText
  0
TEXT
  5
1D6
100
AcDbEntity
  8
0
 62
     7
100
AcDbText
 10
131.547112
 20
90.698928
 30
0.0
 40
2.5
  1
520
 41
0.7695
  7
FontTableH_0
 72
     5
 11
137.172112
 21
90.698928
 31
0.0
100
AcDbText
  0
TEXT
  5
1D7
100
AcDbEntity
  8
0
 62
     7
100
AcDbText
 10
131.547112
 20
87.673928
 30
0.0
 40
2.5
  1
470
 41
0.7695
  7
FontTableH_0
 72
     5
 11
137.172112
 21
87.673928
 31
0.0
100
AcDbText
  0
TEXT
  5
1D8
100
AcDbEntity
  8
0
 62
     7
100
AcDbText
 10
131.547112
 20
84.648928
 30
0.0
 40
2.5
  1
420
 41
0.7695
  7
FontTableH_0
 72
     5
 11
137.172112
 21
84.648928
 31
0.0
100
AcDbText
  0
TEXT
  5
1D9
100
AcDbEntity
  8
0
 62
     7
100
AcDbText
 10
131.547112
 20
81.623928
 30
0.0
 40
2.5
  1
370
 41
0.7695
  7
FontTableH_0
 72
     5
 11
137.172112
 21
81.623928
 31
0.0
100
AcDbText
  0
TEXT
  5
1DA
100
AcDbEntity
  8
0
 62
     7
100
AcDbText
 10
131.547112
 20
78.598928
 30
0.0
 40
2.5
  1
318
 41
0.7695
  7
FontTableH_0
 72
     5
 11
137.172112
 21
78.598928
 31
0.0
100
AcDbText
  0
TEXT
  5
1DB
100
AcDbEntity
  8
0
 62
     7
100
AcDbText
 10
131.547112
 20
75.573928
 30
0.0
 40
2.5
  1
267
 41
0.7695
  7
FontTableH_0
 72
     5
 11
137.172112
 21
75.573928
 31
0.0
100
AcDbText
  0
TEXT
  5
1DC
100
AcDbEntity
  8
0
 62
     7
100
AcDbText
 10
131.547112
 20
72.548928
 30
0.0
 40
2.5
  1
216
 41
0.7695
  7
FontTableH_0
 72
     5
 11
137.172112
 21
72.548928
 31
0.0
100
AcDbText
  0
TEXT
  5
1DD
100
AcDbEntity
  8
0
 62
     7
100
AcDbText
 10
333.534168
 20
49.779819
 30
0.0
 40
3.0
  1
ワイカン
 41
0.7695
  7
FontTableH_0
 72
     5
 11
345.534168
 21
49.779819
 31
0.0
100
AcDbText
  0
TEXT
  5
1DE
100
AcDbEntity
  8
0
 62
     7
100
AcDbText
 10
144.591806
 20
227.610117
 30
0.0
 40
3.0
  1
Ｌ１
 41
0.7695
  7
FontTableH_0
 72
     5
 11
150.591806
 21
227.610117
 31
0.0
100
AcDbText
  0
TEXT
  5
1DF
100
AcDbEntity
  8
0
 62
     7
100
AcDbText
 10
157.791806
 20
227.610117
 30
0.0
 40
3.0
  1
Ｌ２
 41
0.7695
  7
FontTableH_0
 72
     5
 11
163.791806
 21
227.610117
 31
0.0
100
AcDbText
  0
TEXT
  5
1E0
100
AcDbEntity
  8
0
 62
     7
100
AcDbText
 10
196.071798
 20
227.610117
 30
0.0
 40
3.0
  1
ｌ１
 41
0.7695
  7
FontTableH_0
 72
     5
 11
202.071798
 21
227.610117
 31
0.0
100
AcDbText
  0
TEXT
  5
1E1
100
AcDbEntity
  8
0
 62
     7
100
AcDbText
 10
209.271798
 20
227.610117
 30
0.0
 40
3.0
  1
ｌ２
 41
0.7695
  7
FontTableH_0
 72
     5
 11
215.271798
 21
227.610117
 31
0.0
100
AcDbText
  0
TEXT
  5
1E2
100
AcDbEntity
  8
0
 62
     7
100
AcDbText
 10
197.547108
 20
223.798927
 30
0.0
 40
2.5
  1
100
 41
0.7695
  7
FontTableH_0
 72
     5
 11
203.172108
 21
223.798927
 31
0.0
100
AcDbText
  0
TEXT
  5
1E3
100
AcDbEntity
  8
0
 62
     7
100
AcDbText
 10
197.547108
 20
220.773927
 30
0.0
 40
2.5
  1
100
 41
0.7695
  7
FontTableH_0
 72
     5
 11
203.172108
 21
220.773927
 31
0.0
100
AcDbText
  0
TEXT
  5
1E4
100
AcDbEntity
  8
0
 62
     7
100
AcDbText
 10
197.547108
 20
217.748927
 30
0.0
 40
2.5
  1
100
 41
0.7695
  7
FontTableH_0
 72
     5
 11
203.172108
 21
217.748927
 31
0.0
100
AcDbText
  0
TEXT
  5
1E5
100
AcDbEntity
  8
0
 62
     7
100
AcDbText
 10
197.547108
 20
214.723927
 30
0.0
 40
2.5
  1
100
 41
0.7695
  7
FontTableH_0
 72
     5
 11
203.172108
 21
214.723927
 31
0.0
100
AcDbText
  0
TEXT
  5
1E6
100
AcDbEntity
  8
0
 62
     7
100
AcDbText
 10
197.547108
 20
211.698927
 30
0.0
 40
2.5
  1
100
 41
0.7695
  7
FontTableH_0
 72
     5
 11
203.172108
 21
211.698927
 31
0.0
100
AcDbText
  0
TEXT
  5
1E7
100
AcDbEntity
  8
0
 62
     7
100
AcDbText
 10
197.547108
 20
208.673927
 30
0.0
 40
2.5
  1
100
 41
0.7695
  7
FontTableH_0
 72
     5
 11
203.172108
 21
208.673927
 31
0.0
100
AcDbText
  0
TEXT
  5
1E8
100
AcDbEntity
  8
0
 62
     7
100
AcDbText
 10
197.547108
 20
205.648927
 30
0.0
 40
2.5
  1
100
 41
0.7695
  7
FontTableH_0
 72
     5
 11
203.172108
 21
205.648927
 31
0.0
100
AcDbText
  0
TEXT
  5
1E9
100
AcDbEntity
  8
0
 62
     7
100
AcDbText
 10
197.547108
 20
202.623927
 30
0.0
 40
2.5
  1
110
 41
0.7695
  7
FontTableH_0
 72
     5
 11
203.172108
 21
202.623927
 31
0.0
100
AcDbText
  0
TEXT
  5
1EA
100
AcDbEntity
  8
0
 62
     7
100
AcDbText
 10
197.547108
 20
199.598927
 30
0.0
 40
2.5
  1
110
 41
0.7695
  7
FontTableH_0
 72
     5
 11
203.172108
 21
199.598927
 31
0.0
100
AcDbText
  0
TEXT
  5
1EB
100
AcDbEntity
  8
0
 62
     7
100
AcDbText
 10
197.547108
 20
196.573927
 30
0.0
 40
2.5
  1
110
 41
0.7695
  7
FontTableH_0
 72
     5
 11
203.172108
 21
196.573927
 31
0.0
100
AcDbText
  0
TEXT
  5
1EC
100
AcDbEntity
  8
0
 62
     7
100
AcDbText
 10
197.547108
 20
193.548927
 30
0.0
 40
2.5
  1
110
 41
0.7695
  7
FontTableH_0
 72
     5
 11
203.172108
 21
193.548927
 31
0.0
100
AcDbText
  0
TEXT
  5
1ED
100
AcDbEntity
  8
0
 62
     7
100
AcDbText
 10
197.547108
 20
190.523927
 30
0.0
 40
2.5
  1
120
 41
0.7695
  7
FontTableH_0
 72
     5
 11
203.172108
 21
190.523927
 31
0.0
100
AcDbText
  0
TEXT
  5
1EE
100
AcDbEntity
  8
0
 62
     7
100
AcDbText
 10
197.547108
 20
187.498927
 30
0.0
 40
2.5
  1
120
 41
0.7695
  7
FontTableH_0
 72
     5
 11
203.172108
 21
187.498927
 31
0.0
100
AcDbText
  0
TEXT
  5
1EF
100
AcDbEntity
  8
0
 62
     7
100
AcDbText
 10
197.547108
 20
184.473927
 30
0.0
 40
2.5
  1
120
 41
0.7695
  7
FontTableH_0
 72
     5
 11
203.172108
 21
184.473927
 31
0.0
100
AcDbText
  0
TEXT
  5
1F0
100
AcDbEntity
  8
0
 62
     7
100
AcDbText
 10
197.547108
 20
181.448927
 30
0.0
 40
2.5
  1
120
 41
0.7695
  7
FontTableH_0
 72
     5
 11
203.172108
 21
181.448927
 31
0.0
100
AcDbText
  0
TEXT
  5
1F1
100
AcDbEntity
  8
0
 62
     7
100
AcDbText
 10
197.547108
 20
178.423927
 30
0.0
 40
2.5
  1
120
 41
0.7695
  7
FontTableH_0
 72
     5
 11
203.172108
 21
178.423927
 31
0.0
100
AcDbText
  0
TEXT
  5
1F2
100
AcDbEntity
  8
0
 62
     7
100
AcDbText
 10
197.547108
 20
175.398927
 30
0.0
 40
2.5
  1
130
 41
0.7695
  7
FontTableH_0
 72
     5
 11
203.172108
 21
175.398927
 31
0.0
100
AcDbText
  0
TEXT
  5
1F3
100
AcDbEntity
  8
0
 62
     7
100
AcDbText
 10
197.547108
 20
172.373927
 30
0.0
 40
2.5
  1
130
 41
0.7695
  7
FontTableH_0
 72
     5
 11
203.172108
 21
172.373927
 31
0.0
100
AcDbText
  0
TEXT
  5
1F4
100
AcDbEntity
  8
0
 62
     7
100
AcDbText
 10
197.547108
 20
169.348927
 30
0.0
 40
2.5
  1
130
 41
0.7695
  7
FontTableH_0
 72
     5
 11
203.172108
 21
169.348927
 31
0.0
100
AcDbText
  0
TEXT
  5
1F5
100
AcDbEntity
  8
0
 62
     7
100
AcDbText
 10
197.547108
 20
166.323927
 30
0.0
 40
2.5
  1
130
 41
0.7695
  7
FontTableH_0
 72
     5
 11
203.172108
 21
166.323927
 31
0.0
100
AcDbText
  0
TEXT
  5
1F6
100
AcDbEntity
  8
0
 62
     7
100
AcDbText
 10
197.547108
 20
163.298927
 30
0.0
 40
2.5
  1
130
 41
0.7695
  7
FontTableH_0
 72
     5
 11
203.172108
 21
163.298927
 31
0.0
100
AcDbText
  0
TEXT
  5
1F7
100
AcDbEntity
  8
0
 62
     7
100
AcDbText
 10
197.547108
 20
160.273927
 30
0.0
 40
2.5
  1
130
 41
0.7695
  7
FontTableH_0
 72
     5
 11
203.172108
 21
160.273927
 31
0.0
100
AcDbText
  0
TEXT
  5
1F8
100
AcDbEntity
  8
0
 62
     7
100
AcDbText
 10
197.547108
 20
157.248927
 30
0.0
 40
2.5
  1
140
 41
0.7695
  7
FontTableH_0
 72
     5
 11
203.172108
 21
157.248927
 31
0.0
100
AcDbText
  0
TEXT
  5
1F9
100
AcDbEntity
  8
0
 62
     7
100
AcDbText
 10
197.547108
 20
154.223927
 30
0.0
 40
2.5
  1
140
 41
0.7695
  7
FontTableH_0
 72
     5
 11
203.172108
 21
154.223927
 31
0.0
100
AcDbText
  0
TEXT
  5
1FA
100
AcDbEntity
  8
0
 62
     7
100
AcDbText
 10
197.547108
 20
151.198927
 30
0.0
 40
2.5
  1
140
 41
0.7695
  7
FontTableH_0
 72
     5
 11
203.172108
 21
151.198927
 31
0.0
100
AcDbText
  0
TEXT
  5
1FB
100
AcDbEntity
  8
0
 62
     7
100
AcDbText
 10
197.547108
 20
148.173927
 30
0.0
 40
2.5
  1
140
 41
0.7695
  7
FontTableH_0
 72
     5
 11
203.172108
 21
148.173927
 31
0.0
100
AcDbText
  0
TEXT
  5
1FC
100
AcDbEntity
  8
0
 62
     7
100
AcDbText
 10
197.547108
 20
145.148927
 30
0.0
 40
2.5
  1
140
 41
0.7695
  7
FontTableH_0
 72
     5
 11
203.172108
 21
145.148927
 31
0.0
100
AcDbText
  0
TEXT
  5
1FD
100
AcDbEntity
  8
0
 62
     7
100
AcDbText
 10
197.547108
 20
142.123927
 30
0.0
 40
2.5
  1
140
 41
0.7695
  7
FontTableH_0
 72
     5
 11
203.172108
 21
142.123927
 31
0.0
100
AcDbText
  0
TEXT
  5
1FE
100
AcDbEntity
  8
0
 62
     7
100
AcDbText
 10
197.547108
 20
139.098927
 30
0.0
 40
2.5
  1
140
 41
0.7695
  7
FontTableH_0
 72
     5
 11
203.172108
 21
139.098927
 31
0.0
100
AcDbText
  0
TEXT
  5
1FF
100
AcDbEntity
  8
0
 62
     7
100
AcDbText
 10
197.547108
 20
136.073928
 30
0.0
 40
2.5
  1
140
 41
0.7695
  7
FontTableH_0
 72
     5
 11
203.172108
 21
136.073928
 31
0.0
100
AcDbText
  0
TEXT
  5
200
100
AcDbEntity
  8
0
 62
     7
100
AcDbText
 10
197.547108
 20
133.048928
 30
0.0
 40
2.5
  1
140
 41
0.7695
  7
FontTableH_0
 72
     5
 11
203.172108
 21
133.048928
 31
0.0
100
AcDbText
  0
TEXT
  5
201
100
AcDbEntity
  8
0
 62
     7
100
AcDbText
 10
197.547108
 20
130.023928
 30
0.0
 40
2.5
  1
140
 41
0.7695
  7
FontTableH_0
 72
     5
 11
203.172108
 21
130.023928
 31
0.0
100
AcDbText
  0
TEXT
  5
202
100
AcDbEntity
  8
0
 62
     7
100
AcDbText
 10
197.547108
 20
126.998928
 30
0.0
 40
2.5
  1
140
 41
0.7695
  7
FontTableH_0
 72
     5
 11
203.172108
 21
126.998928
 31
0.0
100
AcDbText
  0
TEXT
  5
203
100
AcDbEntity
  8
0
 62
     7
100
AcDbText
 10
197.547108
 20
123.973928
 30
0.0
 40
2.5
  1
140
 41
0.7695
  7
FontTableH_0
 72
     5
 11
203.172108
 21
123.973928
 31
0.0
100
AcDbText
  0
TEXT
  5
204
100
AcDbEntity
  8
0
 62
     7
100
AcDbText
 10
197.547108
 20
120.948928
 30
0.0
 40
2.5
  1
140
 41
0.7695
  7
FontTableH_0
 72
     5
 11
203.172108
 21
120.948928
 31
0.0
100
AcDbText
  0
TEXT
  5
205
100
AcDbEntity
  8
0
 62
     7
100
AcDbText
 10
197.547108
 20
117.923928
 30
0.0
 40
2.5
  1
140
 41
0.7695
  7
FontTableH_0
 72
     5
 11
203.172108
 21
117.923928
 31
0.0
100
AcDbText
  0
TEXT
  5
206
100
AcDbEntity
  8
0
 62
     7
100
AcDbText
 10
197.547108
 20
114.898928
 30
0.0
 40
2.5
  1
140
 41
0.7695
  7
FontTableH_0
 72
     5
 11
203.172108
 21
114.898928
 31
0.0
100
AcDbText
  0
TEXT
  5
207
100
AcDbEntity
  8
0
 62
     7
100
AcDbText
 10
197.547108
 20
111.873928
 30
0.0
 40
2.5
  1
140
 41
0.7695
  7
FontTableH_0
 72
     5
 11
203.172108
 21
111.873928
 31
0.0
100
AcDbText
  0
TEXT
  5
208
100
AcDbEntity
  8
0
 62
     7
100
AcDbText
 10
197.547108
 20
108.848928
 30
0.0
 40
2.5
  1
140
 41
0.7695
  7
FontTableH_0
 72
     5
 11
203.172108
 21
108.848928
 31
0.0
100
AcDbText
  0
TEXT
  5
209
100
AcDbEntity
  8
0
 62
     7
100
AcDbText
 10
197.547108
 20
105.823928
 30
0.0
 40
2.5
  1
140
 41
0.7695
  7
FontTableH_0
 72
     5
 11
203.172108
 21
105.823928
 31
0.0
100
AcDbText
  0
TEXT
  5
20A
100
AcDbEntity
  8
0
 62
     7
100
AcDbText
 10
197.547108
 20
102.798928
 30
0.0
 40
2.5
  1
140
 41
0.7695
  7
FontTableH_0
 72
     5
 11
203.172108
 21
102.798928
 31
0.0
100
AcDbText
  0
TEXT
  5
20B
100
AcDbEntity
  8
0
 62
     7
100
AcDbText
 10
197.547108
 20
99.773928
 30
0.0
 40
2.5
  1
140
 41
0.7695
  7
FontTableH_0
 72
     5
 11
203.172108
 21
99.773928
 31
0.0
100
AcDbText
  0
TEXT
  5
20C
100
AcDbEntity
  8
0
 62
     7
100
AcDbText
 10
197.547108
 20
96.748928
 30
0.0
 40
2.5
  1
140
 41
0.7695
  7
FontTableH_0
 72
     5
 11
203.172108
 21
96.748928
 31
0.0
100
AcDbText
  0
TEXT
  5
20D
100
AcDbEntity
  8
0
 62
     7
100
AcDbText
 10
197.547108
 20
93.723928
 30
0.0
 40
2.5
  1
150
 41
0.7695
  7
FontTableH_0
 72
     5
 11
203.172108
 21
93.723928
 31
0.0
100
AcDbText
  0
TEXT
  5
20E
100
AcDbEntity
  8
0
 62
     7
100
AcDbText
 10
197.547108
 20
90.698928
 30
0.0
 40
2.5
  1
150
 41
0.7695
  7
FontTableH_0
 72
     5
 11
203.172108
 21
90.698928
 31
0.0
100
AcDbText
  0
TEXT
  5
20F
100
AcDbEntity
  8
0
 62
     7
100
AcDbText
 10
197.547108
 20
87.673928
 30
0.0
 40
2.5
  1
150
 41
0.7695
  7
FontTableH_0
 72
     5
 11
203.172108
 21
87.673928
 31
0.0
100
AcDbText
  0
TEXT
  5
210
100
AcDbEntity
  8
0
 62
     7
100
AcDbText
 10
197.547108
 20
84.648928
 30
0.0
 40
2.5
  1
150
 41
0.7695
  7
FontTableH_0
 72
     5
 11
203.172108
 21
84.648928
 31
0.0
100
AcDbText
  0
TEXT
  5
211
100
AcDbEntity
  8
0
 62
     7
100
AcDbText
 10
197.547108
 20
81.623928
 30
0.0
 40
2.5
  1
150
 41
0.7695
  7
FontTableH_0
 72
     5
 11
203.172108
 21
81.623928
 31
0.0
100
AcDbText
  0
TEXT
  5
212
100
AcDbEntity
  8
0
 62
     7
100
AcDbText
 10
197.547108
 20
78.598928
 30
0.0
 40
2.5
  1
150
 41
0.7695
  7
FontTableH_0
 72
     5
 11
203.172108
 21
78.598928
 31
0.0
100
AcDbText
  0
TEXT
  5
213
100
AcDbEntity
  8
0
 62
     7
100
AcDbText
 10
197.547108
 20
75.573928
 30
0.0
 40
2.5
  1
150
 41
0.7695
  7
FontTableH_0
 72
     5
 11
203.172108
 21
75.573928
 31
0.0
100
AcDbText
  0
TEXT
  5
214
100
AcDbEntity
  8
0
 62
     7
100
AcDbText
 10
197.547108
 20
72.548928
 30
0.0
 40
2.5
  1
150
 41
0.7695
  7
FontTableH_0
 72
     5
 11
203.172108
 21
72.548928
 31
0.0
100
AcDbText
  0
TEXT
  5
215
100
AcDbEntity
  8
0
 62
     7
100
AcDbText
 10
197.547108
 20
69.523928
 30
0.0
 40
2.5
  1
150
 41
0.7695
  7
FontTableH_0
 72
     5
 11
203.172108
 21
69.523928
 31
0.0
100
AcDbText
  0
TEXT
  5
216
100
AcDbEntity
  8
0
 62
     7
100
AcDbText
 10
210.747108
 20
223.798927
 30
0.0
 40
2.5
  1
100
 41
0.7695
  7
FontTableH_0
 72
     5
 11
216.372108
 21
223.798927
 31
0.0
100
AcDbText
  0
TEXT
  5
217
100
AcDbEntity
  8
0
 62
     7
100
AcDbText
 10
212.067108
 20
220.773927
 30
0.0
 40
2.5
  1
80
 41
0.7695
  7
FontTableH_0
 72
     5
 11
215.817108
 21
220.773927
 31
0.0
100
AcDbText
  0
TEXT
  5
218
100
AcDbEntity
  8
0
 62
     7
100
AcDbText
 10
212.067108
 20
217.748927
 30
0.0
 40
2.5
  1
80
 41
0.7695
  7
FontTableH_0
 72
     5
 11
215.817108
 21
217.748927
 31
0.0
100
AcDbText
  0
TEXT
  5
219
100
AcDbEntity
  8
0
 62
     7
100
AcDbText
 10
210.747108
 20
214.723927
 30
0.0
 40
2.5
  1
100
 41
0.7695
  7
FontTableH_0
 72
     5
 11
216.372108
 21
214.723927
 31
0.0
100
AcDbText
  0
TEXT
  5
21A
100
AcDbEntity
  8
0
 62
     7
100
AcDbText
 10
210.747108
 20
211.698927
 30
0.0
 40
2.5
  1
100
 41
0.7695
  7
FontTableH_0
 72
     5
 11
216.372108
 21
211.698927
 31
0.0
100
AcDbText
  0
TEXT
  5
21B
100
AcDbEntity
  8
0
 62
     7
100
AcDbText
 10
212.067108
 20
208.673927
 30
0.0
 40
2.5
  1
80
 41
0.7695
  7
FontTableH_0
 72
     5
 11
215.817108
 21
208.673927
 31
0.0
100
AcDbText
  0
TEXT
  5
21C
100
AcDbEntity
  8
0
 62
     7
100
AcDbText
 10
212.067108
 20
205.648927
 30
0.0
 40
2.5
  1
80
 41
0.7695
  7
FontTableH_0
 72
     5
 11
215.817108
 21
205.648927
 31
0.0
100
AcDbText
  0
TEXT
  5
21D
100
AcDbEntity
  8
0
 62
     7
100
AcDbText
 10
210.747108
 20
202.623927
 30
0.0
 40
2.5
  1
110
 41
0.7695
  7
FontTableH_0
 72
     5
 11
216.372108
 21
202.623927
 31
0.0
100
AcDbText
  0
TEXT
  5
21E
100
AcDbEntity
  8
0
 62
     7
100
AcDbText
 10
210.747108
 20
199.598927
 30
0.0
 40
2.5
  1
100
 41
0.7695
  7
FontTableH_0
 72
     5
 11
216.372108
 21
199.598927
 31
0.0
100
AcDbText
  0
TEXT
  5
21F
100
AcDbEntity
  8
0
 62
     7
100
AcDbText
 10
210.747108
 20
196.573927
 30
0.0
 40
2.5
  1
100
 41
0.7695
  7
FontTableH_0
 72
     5
 11
216.372108
 21
196.573927
 31
0.0
100
AcDbText
  0
TEXT
  5
220
100
AcDbEntity
  8
0
 62
     7
100
AcDbText
 10
212.067108
 20
193.548927
 30
0.0
 40
2.5
  1
80
 41
0.7695
  7
FontTableH_0
 72
     5
 11
215.817108
 21
193.548927
 31
0.0
100
AcDbText
  0
TEXT
  5
221
100
AcDbEntity
  8
0
 62
     7
100
AcDbText
 10
210.747108
 20
190.523927
 30
0.0
 40
2.5
  1
120
 41
0.7695
  7
FontTableH_0
 72
     5
 11
216.372108
 21
190.523927
 31
0.0
100
AcDbText
  0
TEXT
  5
222
100
AcDbEntity
  8
0
 62
     7
100
AcDbText
 10
210.747108
 20
187.498927
 30
0.0
 40
2.5
  1
110
 41
0.7695
  7
FontTableH_0
 72
     5
 11
216.372108
 21
187.498927
 31
0.0
100
AcDbText
  0
TEXT
  5
223
100
AcDbEntity
  8
0
 62
     7
100
AcDbText
 10
210.747108
 20
184.473927
 30
0.0
 40
2.5
  1
100
 41
0.7695
  7
FontTableH_0
 72
     5
 11
216.372108
 21
184.473927
 31
0.0
100
AcDbText
  0
TEXT
  5
224
100
AcDbEntity
  8
0
 62
     7
100
AcDbText
 10
210.747108
 20
181.448927
 30
0.0
 40
2.5
  1
100
 41
0.7695
  7
FontTableH_0
 72
     5
 11
216.372108
 21
181.448927
 31
0.0
100
AcDbText
  0
TEXT
  5
225
100
AcDbEntity
  8
0
 62
     7
100
AcDbText
 10
212.067108
 20
178.423927
 30
0.0
 40
2.5
  1
80
 41
0.7695
  7
FontTableH_0
 72
     5
 11
215.817108
 21
178.423927
 31
0.0
100
AcDbText
  0
TEXT
  5
226
100
AcDbEntity
  8
0
 62
     7
100
AcDbText
 10
210.747108
 20
175.398927
 30
0.0
 40
2.5
  1
130
 41
0.7695
  7
FontTableH_0
 72
     5
 11
216.372108
 21
175.398927
 31
0.0
100
AcDbText
  0
TEXT
  5
227
100
AcDbEntity
  8
0
 62
     7
100
AcDbText
 10
210.747108
 20
172.373927
 30
0.0
 40
2.5
  1
120
 41
0.7695
  7
FontTableH_0
 72
     5
 11
216.372108
 21
172.373927
 31
0.0
100
AcDbText
  0
TEXT
  5
228
100
AcDbEntity
  8
0
 62
     7
100
AcDbText
 10
210.747108
 20
169.348927
 30
0.0
 40
2.5
  1
110
 41
0.7695
  7
FontTableH_0
 72
     5
 11
216.372108
 21
169.348927
 31
0.0
100
AcDbText
  0
TEXT
  5
229
100
AcDbEntity
  8
0
 62
     7
100
AcDbText
 10
210.747108
 20
166.323927
 30
0.0
 40
2.5
  1
100
 41
0.7695
  7
FontTableH_0
 72
     5
 11
216.372108
 21
166.323927
 31
0.0
100
AcDbText
  0
TEXT
  5
22A
100
AcDbEntity
  8
0
 62
     7
100
AcDbText
 10
210.747108
 20
163.298927
 30
0.0
 40
2.5
  1
100
 41
0.7695
  7
FontTableH_0
 72
     5
 11
216.372108
 21
163.298927
 31
0.0
100
AcDbText
  0
TEXT
  5
22B
100
AcDbEntity
  8
0
 62
     7
100
AcDbText
 10
212.067108
 20
160.273927
 30
0.0
 40
2.5
  1
80
 41
0.7695
  7
FontTableH_0
 72
     5
 11
215.817108
 21
160.273927
 31
0.0
100
AcDbText
  0
TEXT
  5
22C
100
AcDbEntity
  8
0
 62
     7
100
AcDbText
 10
210.747108
 20
157.248927
 30
0.0
 40
2.5
  1
140
 41
0.7695
  7
FontTableH_0
 72
     5
 11
216.372108
 21
157.248927
 31
0.0
100
AcDbText
  0
TEXT
  5
22D
100
AcDbEntity
  8
0
 62
     7
100
AcDbText
 10
210.747108
 20
154.223927
 30
0.0
 40
2.5
  1
130
 41
0.7695
  7
FontTableH_0
 72
     5
 11
216.372108
 21
154.223927
 31
0.0
100
AcDbText
  0
TEXT
  5
22E
100
AcDbEntity
  8
0
 62
     7
100
AcDbText
 10
210.747108
 20
151.198927
 30
0.0
 40
2.5
  1
120
 41
0.7695
  7
FontTableH_0
 72
     5
 11
216.372108
 21
151.198927
 31
0.0
100
AcDbText
  0
TEXT
  5
22F
100
AcDbEntity
  8
0
 62
     7
100
AcDbText
 10
210.747108
 20
148.173927
 30
0.0
 40
2.5
  1
110
 41
0.7695
  7
FontTableH_0
 72
     5
 11
216.372108
 21
148.173927
 31
0.0
100
AcDbText
  0
TEXT
  5
230
100
AcDbEntity
  8
0
 62
     7
100
AcDbText
 10
210.747108
 20
145.148927
 30
0.0
 40
2.5
  1
100
 41
0.7695
  7
FontTableH_0
 72
     5
 11
216.372108
 21
145.148927
 31
0.0
100
AcDbText
  0
TEXT
  5
231
100
AcDbEntity
  8
0
 62
     7
100
AcDbText
 10
210.747108
 20
142.123927
 30
0.0
 40
2.5
  1
100
 41
0.7695
  7
FontTableH_0
 72
     5
 11
216.372108
 21
142.123927
 31
0.0
100
AcDbText
  0
TEXT
  5
232
100
AcDbEntity
  8
0
 62
     7
100
AcDbText
 10
210.747108
 20
139.098927
 30
0.0
 40
2.5
  1
140
 41
0.7695
  7
FontTableH_0
 72
     5
 11
216.372108
 21
139.098927
 31
0.0
100
AcDbText
  0
TEXT
  5
233
100
AcDbEntity
  8
0
 62
     7
100
AcDbText
 10
210.747108
 20
136.073928
 30
0.0
 40
2.5
  1
140
 41
0.7695
  7
FontTableH_0
 72
     5
 11
216.372108
 21
136.073928
 31
0.0
100
AcDbText
  0
TEXT
  5
234
100
AcDbEntity
  8
0
 62
     7
100
AcDbText
 10
210.747108
 20
133.048928
 30
0.0
 40
2.5
  1
130
 41
0.7695
  7
FontTableH_0
 72
     5
 11
216.372108
 21
133.048928
 31
0.0
100
AcDbText
  0
TEXT
  5
235
100
AcDbEntity
  8
0
 62
     7
100
AcDbText
 10
210.747108
 20
123.973928
 30
0.0
 40
2.5
  1
100
 41
0.7695
  7
FontTableH_0
 72
     5
 11
216.372108
 21
123.973928
 31
0.0
100
AcDbText
  0
TEXT
  5
236
100
AcDbEntity
  8
0
 62
     7
100
AcDbText
 10
210.747108
 20
117.923928
 30
0.0
 40
2.5
  1
140
 41
0.7695
  7
FontTableH_0
 72
     5
 11
216.372108
 21
117.923928
 31
0.0
100
AcDbText
  0
TEXT
  5
237
100
AcDbEntity
  8
0
 62
     7
100
AcDbText
 10
210.747108
 20
114.898928
 30
0.0
 40
2.5
  1
140
 41
0.7695
  7
FontTableH_0
 72
     5
 11
216.372108
 21
114.898928
 31
0.0
100
AcDbText
  0
TEXT
  5
238
100
AcDbEntity
  8
0
 62
     7
100
AcDbText
 10
210.747108
 20
99.773928
 30
0.0
 40
2.5
  1
100
 41
0.7695
  7
FontTableH_0
 72
     5
 11
216.372108
 21
99.773928
 31
0.0
100
AcDbText
  0
TEXT
  5
239
100
AcDbEntity
  8
0
 62
     7
100
AcDbText
 10
210.747108
 20
96.748928
 30
0.0
 40
2.5
  1
100
 41
0.7695
  7
FontTableH_0
 72
     5
 11
216.372108
 21
96.748928
 31
0.0
100
AcDbText
  0
TEXT
  5
23A
100
AcDbEntity
  8
0
 62
     7
100
AcDbText
 10
210.747108
 20
102.798928
 30
0.0
 40
2.5
  1
110
 41
0.7695
  7
FontTableH_0
 72
     5
 11
216.372108
 21
102.798928
 31
0.0
100
AcDbText
  0
TEXT
  5
23B
100
AcDbEntity
  8
0
 62
     7
100
AcDbText
 10
210.747108
 20
105.823928
 30
0.0
 40
2.5
  1
120
 41
0.7695
  7
FontTableH_0
 72
     5
 11
216.372108
 21
105.823928
 31
0.0
100
AcDbText
  0
TEXT
  5
23C
100
AcDbEntity
  8
0
 62
     7
100
AcDbText
 10
210.747108
 20
120.948928
 30
0.0
 40
2.5
  1
100
 41
0.7695
  7
FontTableH_0
 72
     5
 11
216.372108
 21
120.948928
 31
0.0
100
AcDbText
  0
TEXT
  5
23D
100
AcDbEntity
  8
0
 62
     7
100
AcDbText
 10
210.747108
 20
126.998928
 30
0.0
 40
2.5
  1
110
 41
0.7695
  7
FontTableH_0
 72
     5
 11
216.372108
 21
126.998928
 31
0.0
100
AcDbText
  0
TEXT
  5
23E
100
AcDbEntity
  8
0
 62
     7
100
AcDbText
 10
210.747108
 20
130.023928
 30
0.0
 40
2.5
  1
120
 41
0.7695
  7
FontTableH_0
 72
     5
 11
216.372108
 21
130.023928
 31
0.0
100
AcDbText
  0
TEXT
  5
23F
100
AcDbEntity
  8
0
 62
     7
100
AcDbText
 10
210.747108
 20
111.873928
 30
0.0
 40
2.5
  1
140
 41
0.7695
  7
FontTableH_0
 72
     5
 11
216.372108
 21
111.873928
 31
0.0
100
AcDbText
  0
TEXT
  5
240
100
AcDbEntity
  8
0
 62
     7
100
AcDbText
 10
210.747108
 20
108.848928
 30
0.0
 40
2.5
  1
130
 41
0.7695
  7
FontTableH_0
 72
     5
 11
216.372108
 21
108.848928
 31
0.0
100
AcDbText
  0
TEXT
  5
241
100
AcDbEntity
  8
0
 62
     7
100
AcDbText
 10
210.747108
 20
93.723928
 30
0.0
 40
2.5
  1
150
 41
0.7695
  7
FontTableH_0
 72
     5
 11
216.372108
 21
93.723928
 31
0.0
100
AcDbText
  0
TEXT
  5
242
100
AcDbEntity
  8
0
 62
     7
100
AcDbText
 10
210.747108
 20
90.698928
 30
0.0
 40
2.5
  1
140
 41
0.7695
  7
FontTableH_0
 72
     5
 11
216.372108
 21
90.698928
 31
0.0
100
AcDbText
  0
TEXT
  5
243
100
AcDbEntity
  8
0
 62
     7
100
AcDbText
 10
210.747108
 20
87.673928
 30
0.0
 40
2.5
  1
140
 41
0.7695
  7
FontTableH_0
 72
     5
 11
216.372108
 21
87.673928
 31
0.0
100
AcDbText
  0
TEXT
  5
244
100
AcDbEntity
  8
0
 62
     7
100
AcDbText
 10
210.747108
 20
84.648928
 30
0.0
 40
2.5
  1
140
 41
0.7695
  7
FontTableH_0
 72
     5
 11
216.372108
 21
84.648928
 31
0.0
100
AcDbText
  0
TEXT
  5
245
100
AcDbEntity
  8
0
 62
     7
100
AcDbText
 10
210.747108
 20
81.623928
 30
0.0
 40
2.5
  1
130
 41
0.7695
  7
FontTableH_0
 72
     5
 11
216.372108
 21
81.623928
 31
0.0
100
AcDbText
  0
TEXT
  5
246
100
AcDbEntity
  8
0
 62
     7
100
AcDbText
 10
210.747108
 20
78.598928
 30
0.0
 40
2.5
  1
120
 41
0.7695
  7
FontTableH_0
 72
     5
 11
216.372108
 21
78.598928
 31
0.0
100
AcDbText
  0
TEXT
  5
247
100
AcDbEntity
  8
0
 62
     7
100
AcDbText
 10
210.747108
 20
75.573928
 30
0.0
 40
2.5
  1
110
 41
0.7695
  7
FontTableH_0
 72
     5
 11
216.372108
 21
75.573928
 31
0.0
100
AcDbText
  0
TEXT
  5
248
100
AcDbEntity
  8
0
 62
     7
100
AcDbText
 10
210.747108
 20
72.548928
 30
0.0
 40
2.5
  1
100
 41
0.7695
  7
FontTableH_0
 72
     5
 11
216.372108
 21
72.548928
 31
0.0
100
AcDbText
  0
TEXT
  5
249
100
AcDbEntity
  8
0
 62
     7
100
AcDbText
 10
210.747108
 20
69.523928
 30
0.0
 40
2.5
  1
100
 41
0.7695
  7
FontTableH_0
 72
     5
 11
216.372108
 21
69.523928
 31
0.0
100
AcDbText
  0
TEXT
  5
24A
100
AcDbEntity
  8
0
 62
     7
100
AcDbText
 10
144.747112
 20
223.798927
 30
0.0
 40
2.5
  1
633
 41
0.7695
  7
FontTableH_0
 72
     5
 11
150.372112
 21
223.798927
 31
0.0
100
AcDbText
  0
TEXT
  5
24B
100
AcDbEntity
  8
0
 62
     7
100
AcDbText
 10
144.747112
 20
220.773927
 30
0.0
 40
2.5
  1
597
 41
0.7695
  7
FontTableH_0
 72
     5
 11
150.372112
 21
220.773927
 31
0.0
100
AcDbText
  0
TEXT
  5
24C
100
AcDbEntity
  8
0
 62
     7
100
AcDbText
 10
144.747112
 20
214.723927
 30
0.0
 40
2.5
  1
706
 41
0.7695
  7
FontTableH_0
 72
     5
 11
150.372112
 21
214.723927
 31
0.0
100
AcDbText
  0
TEXT
  5
24D
100
AcDbEntity
  8
0
 62
     7
100
AcDbText
 10
144.747112
 20
211.698927
 30
0.0
 40
2.5
  1
634
 41
0.7695
  7
FontTableH_0
 72
     5
 11
150.372112
 21
211.698927
 31
0.0
100
AcDbText
  0
TEXT
  5
24E
100
AcDbEntity
  8
0
 62
     7
100
AcDbText
 10
144.747112
 20
208.673927
 30
0.0
 40
2.5
  1
598
 41
0.7695
  7
FontTableH_0
 72
     5
 11
150.372112
 21
208.673927
 31
0.0
100
AcDbText
  0
TEXT
  5
24F
100
AcDbEntity
  8
0
 62
     7
100
AcDbText
 10
144.747112
 20
205.648927
 30
0.0
 40
2.5
  1
562
 41
0.7695
  7
FontTableH_0
 72
     5
 11
150.372112
 21
205.648927
 31
0.0
100
AcDbText
  0
TEXT
  5
250
100
AcDbEntity
  8
0
 62
     7
100
AcDbText
 10
144.747112
 20
202.623927
 30
0.0
 40
2.5
  1
797
 41
0.7695
  7
FontTableH_0
 72
     5
 11
150.372112
 21
202.623927
 31
0.0
100
AcDbText
  0
TEXT
  5
251
100
AcDbEntity
  8
0
 62
     7
100
AcDbText
 10
144.747112
 20
199.598927
 30
0.0
 40
2.5
  1
725
 41
0.7695
  7
FontTableH_0
 72
     5
 11
150.372112
 21
199.598927
 31
0.0
100
AcDbText
  0
TEXT
  5
252
100
AcDbEntity
  8
0
 62
     7
100
AcDbText
 10
144.747112
 20
196.573927
 30
0.0
 40
2.5
  1
653
 41
0.7695
  7
FontTableH_0
 72
     5
 11
150.372112
 21
196.573927
 31
0.0
100
AcDbText
  0
TEXT
  5
253
100
AcDbEntity
  8
0
 62
     7
100
AcDbText
 10
144.747112
 20
193.548927
 30
0.0
 40
2.5
  1
617
 41
0.7695
  7
FontTableH_0
 72
     5
 11
150.372112
 21
193.548927
 31
0.0
100
AcDbText
  0
TEXT
  5
254
100
AcDbEntity
  8
0
 62
     7
100
AcDbText
 10
144.747112
 20
190.523927
 30
0.0
 40
2.5
  1
890
 41
0.7695
  7
FontTableH_0
 72
     5
 11
150.372112
 21
190.523927
 31
0.0
100
AcDbText
  0
TEXT
  5
255
100
AcDbEntity
  8
0
 62
     7
100
AcDbText
 10
144.747112
 20
187.498927
 30
0.0
 40
2.5
  1
818
 41
0.7695
  7
FontTableH_0
 72
     5
 11
150.372112
 21
187.498927
 31
0.0
100
AcDbText
  0
TEXT
  5
256
100
AcDbEntity
  8
0
 62
     7
100
AcDbText
 10
144.747112
 20
184.473927
 30
0.0
 40
2.5
  1
746
 41
0.7695
  7
FontTableH_0
 72
     5
 11
150.372112
 21
184.473927
 31
0.0
100
AcDbText
  0
TEXT
  5
257
100
AcDbEntity
  8
0
 62
     7
100
AcDbText
 10
144.747112
 20
181.448927
 30
0.0
 40
2.5
  1
674
 41
0.7695
  7
FontTableH_0
 72
     5
 11
150.372112
 21
181.448927
 31
0.0
100
AcDbText
  0
TEXT
  5
258
100
AcDbEntity
  8
0
 62
     7
100
AcDbText
 10
144.747112
 20
178.423927
 30
0.0
 40
2.5
  1
638
 41
0.7695
  7
FontTableH_0
 72
     5
 11
150.372112
 21
178.423927
 31
0.0
100
AcDbText
  0
TEXT
  5
259
100
AcDbEntity
  8
0
 62
     7
100
AcDbText
 10
144.747112
 20
175.398927
 30
0.0
 40
2.5
  1
984
 41
0.7695
  7
FontTableH_0
 72
     5
 11
150.372112
 21
175.398927
 31
0.0
100
AcDbText
  0
TEXT
  5
25A
100
AcDbEntity
  8
0
 62
     7
100
AcDbText
 10
144.747112
 20
172.373927
 30
0.0
 40
2.5
  1
910
 41
0.7695
  7
FontTableH_0
 72
     5
 11
150.372112
 21
172.373927
 31
0.0
100
AcDbText
  0
TEXT
  5
25B
100
AcDbEntity
  8
0
 62
     7
100
AcDbText
 10
144.747112
 20
169.348927
 30
0.0
 40
2.5
  1
838
 41
0.7695
  7
FontTableH_0
 72
     5
 11
150.372112
 21
169.348927
 31
0.0
100
AcDbText
  0
TEXT
  5
25C
100
AcDbEntity
  8
0
 62
     7
100
AcDbText
 10
144.747112
 20
166.323927
 30
0.0
 40
2.5
  1
766
 41
0.7695
  7
FontTableH_0
 72
     5
 11
150.372112
 21
166.323927
 31
0.0
100
AcDbText
  0
TEXT
  5
25D
100
AcDbEntity
  8
0
 62
     7
100
AcDbText
 10
144.747112
 20
163.298927
 30
0.0
 40
2.5
  1
694
 41
0.7695
  7
FontTableH_0
 72
     5
 11
150.372112
 21
163.298927
 31
0.0
100
AcDbText
  0
TEXT
  5
25E
100
AcDbEntity
  8
0
 62
     7
100
AcDbText
 10
144.747112
 20
160.273927
 30
0.0
 40
2.5
  1
658
 41
0.7695
  7
FontTableH_0
 72
     5
 11
150.372112
 21
160.273927
 31
0.0
100
AcDbText
  0
TEXT
  5
25F
100
AcDbEntity
  8
0
 62
     7
100
AcDbText
 10
144.747112
 20
151.198927
 30
0.0
 40
2.5
  1
930
 41
0.7695
  7
FontTableH_0
 72
     5
 11
150.372112
 21
151.198927
 31
0.0
100
AcDbText
  0
TEXT
  5
260
100
AcDbEntity
  8
0
 62
     7
100
AcDbText
 10
144.747112
 20
148.173927
 30
0.0
 40
2.5
  1
858
 41
0.7695
  7
FontTableH_0
 72
     5
 11
150.372112
 21
148.173927
 31
0.0
100
AcDbText
  0
TEXT
  5
261
100
AcDbEntity
  8
0
 62
     7
100
AcDbText
 10
144.747112
 20
145.148927
 30
0.0
 40
2.5
  1
786
 41
0.7695
  7
FontTableH_0
 72
     5
 11
150.372112
 21
145.148927
 31
0.0
100
AcDbText
  0
TEXT
  5
262
100
AcDbEntity
  8
0
 62
     7
100
AcDbText
 10
144.747112
 20
142.123927
 30
0.0
 40
2.5
  1
714
 41
0.7695
  7
FontTableH_0
 72
     5
 11
150.372112
 21
142.123927
 31
0.0
100
AcDbText
  0
TEXT
  5
263
100
AcDbEntity
  8
0
 62
     7
100
AcDbText
 10
144.747112
 20
130.023928
 30
0.0
 40
2.5
  1
930
 41
0.7695
  7
FontTableH_0
 72
     5
 11
150.372112
 21
130.023928
 31
0.0
100
AcDbText
  0
TEXT
  5
264
100
AcDbEntity
  8
0
 62
     7
100
AcDbText
 10
144.747112
 20
126.998928
 30
0.0
 40
2.5
  1
858
 41
0.7695
  7
FontTableH_0
 72
     5
 11
150.372112
 21
126.998928
 31
0.0
100
AcDbText
  0
TEXT
  5
265
100
AcDbEntity
  8
0
 62
     7
100
AcDbText
 10
144.747112
 20
123.973928
 30
0.0
 40
2.5
  1
786
 41
0.7695
  7
FontTableH_0
 72
     5
 11
150.372112
 21
123.973928
 31
0.0
100
AcDbText
  0
TEXT
  5
266
100
AcDbEntity
  8
0
 62
     7
100
AcDbText
 10
144.747112
 20
120.948928
 30
0.0
 40
2.5
  1
714
 41
0.7695
  7
FontTableH_0
 72
     5
 11
150.372112
 21
120.948928
 31
0.0
100
AcDbText
  0
TEXT
  5
267
100
AcDbEntity
  8
0
 62
     7
100
AcDbText
 10
144.747112
 20
105.823928
 30
0.0
 40
2.5
  1
930
 41
0.7695
  7
FontTableH_0
 72
     5
 11
150.372112
 21
105.823928
 31
0.0
100
AcDbText
  0
TEXT
  5
268
100
AcDbEntity
  8
0
 62
     7
100
AcDbText
 10
144.747112
 20
102.798928
 30
0.0
 40
2.5
  1
858
 41
0.7695
  7
FontTableH_0
 72
     5
 11
150.372112
 21
102.798928
 31
0.0
100
AcDbText
  0
TEXT
  5
269
100
AcDbEntity
  8
0
 62
     7
100
AcDbText
 10
144.747112
 20
99.773928
 30
0.0
 40
2.5
  1
786
 41
0.7695
  7
FontTableH_0
 72
     5
 11
150.372112
 21
99.773928
 31
0.0
100
AcDbText
  0
TEXT
  5
26A
100
AcDbEntity
  8
0
 62
     7
100
AcDbText
 10
144.747112
 20
96.748928
 30
0.0
 40
2.5
  1
714
 41
0.7695
  7
FontTableH_0
 72
     5
 11
150.372112
 21
96.748928
 31
0.0
100
AcDbText
  0
TEXT
  5
26B
100
AcDbEntity
  8
0
 62
     7
100
AcDbText
 10
143.427112
 20
93.723928
 30
0.0
 40
2.5
  1
1367
 41
0.7695
  7
FontTableH_0
 72
     5
 11
150.927112
 21
93.723928
 31
0.0
100
AcDbText
  0
TEXT
  5
26C
100
AcDbEntity
  8
0
 62
     7
100
AcDbText
 10
144.747112
 20
78.598928
 30
0.0
 40
2.5
  1
923
 41
0.7695
  7
FontTableH_0
 72
     5
 11
150.372112
 21
78.598928
 31
0.0
100
AcDbText
  0
TEXT
  5
26D
100
AcDbEntity
  8
0
 62
     7
100
AcDbText
 10
144.747112
 20
75.573928
 30
0.0
 40
2.5
  1
878
 41
0.7695
  7
FontTableH_0
 72
     5
 11
150.372112
 21
75.573928
 31
0.0
100
AcDbText
  0
TEXT
  5
26E
100
AcDbEntity
  8
0
 62
     7
100
AcDbText
 10
144.747112
 20
72.548928
 30
0.0
 40
2.5
  1
805
 41
0.7695
  7
FontTableH_0
 72
     5
 11
150.372112
 21
72.548928
 31
0.0
100
AcDbText
  0
TEXT
  5
26F
100
AcDbEntity
  8
0
 62
     7
100
AcDbText
 10
144.747112
 20
69.523928
 30
0.0
 40
2.5
  1
734
 41
0.7695
  7
FontTableH_0
 72
     5
 11
150.372112
 21
69.523928
 31
0.0
100
AcDbText
  0
TEXT
  5
270
100
AcDbEntity
  8
0
 62
     7
100
AcDbText
 10
157.947112
 20
223.798927
 30
0.0
 40
2.5
  1
399
 41
0.7695
  7
FontTableH_0
 72
     5
 11
163.572112
 21
223.798927
 31
0.0
100
AcDbText
  0
TEXT
  5
271
100
AcDbEntity
  8
0
 62
     7
100
AcDbText
 10
157.947112
 20
220.773927
 30
0.0
 40
2.5
  1
367
 41
0.7695
  7
FontTableH_0
 72
     5
 11
163.572112
 21
220.773927
 31
0.0
100
AcDbText
  0
TEXT
  5
272
100
AcDbEntity
  8
0
 62
     7
100
AcDbText
 10
157.947112
 20
217.748927
 30
0.0
 40
2.5
  1
354
 41
0.7695
  7
FontTableH_0
 72
     5
 11
163.572112
 21
217.748927
 31
0.0
100
AcDbText
  0
TEXT
  5
273
100
AcDbEntity
  8
0
 62
     7
100
AcDbText
 10
157.947112
 20
214.723927
 30
0.0
 40
2.5
  1
461
 41
0.7695
  7
FontTableH_0
 72
     5
 11
163.572112
 21
214.723927
 31
0.0
100
AcDbText
  0
TEXT
  5
274
100
AcDbEntity
  8
0
 62
     7
100
AcDbText
 10
157.947112
 20
211.698927
 30
0.0
 40
2.5
  1
435
 41
0.7695
  7
FontTableH_0
 72
     5
 11
163.572112
 21
211.698927
 31
0.0
100
AcDbText
  0
TEXT
  5
275
100
AcDbEntity
  8
0
 62
     7
100
AcDbText
 10
157.947112
 20
208.673927
 30
0.0
 40
2.5
  1
403
 41
0.7695
  7
FontTableH_0
 72
     5
 11
163.572112
 21
208.673927
 31
0.0
100
AcDbText
  0
TEXT
  5
276
100
AcDbEntity
  8
0
 62
     7
100
AcDbText
 10
157.947112
 20
205.648927
 30
0.0
 40
2.5
  1
390
 41
0.7695
  7
FontTableH_0
 72
     5
 11
163.572112
 21
205.648927
 31
0.0
100
AcDbText
  0
TEXT
  5
277
100
AcDbEntity
  8
0
 62
     7
100
AcDbText
 10
157.947112
 20
202.623927
 30
0.0
 40
2.5
  1
532
 41
0.7695
  7
FontTableH_0
 72
     5
 11
163.572112
 21
202.623927
 31
0.0
100
AcDbText
  0
TEXT
  5
278
100
AcDbEntity
  8
0
 62
     7
100
AcDbText
 10
157.947112
 20
199.598927
 30
0.0
 40
2.5
  1
497
 41
0.7695
  7
FontTableH_0
 72
     5
 11
163.572112
 21
199.598927
 31
0.0
100
AcDbText
  0
TEXT
  5
279
100
AcDbEntity
  8
0
 62
     7
100
AcDbText
 10
157.947112
 20
196.573927
 30
0.0
 40
2.5
  1
471
 41
0.7695
  7
FontTableH_0
 72
     5
 11
163.572112
 21
196.573927
 31
0.0
100
AcDbText
  0
TEXT
  5
27A
100
AcDbEntity
  8
0
 62
     7
100
AcDbText
 10
157.947112
 20
193.548927
 30
0.0
 40
2.5
  1
439
 41
0.7695
  7
FontTableH_0
 72
     5
 11
163.572112
 21
193.548927
 31
0.0
100
AcDbText
  0
TEXT
  5
27B
100
AcDbEntity
  8
0
 62
     7
100
AcDbText
 10
157.947112
 20
190.523927
 30
0.0
 40
2.5
  1
604
 41
0.7695
  7
FontTableH_0
 72
     5
 11
163.572112
 21
190.523927
 31
0.0
100
AcDbText
  0
TEXT
  5
27C
100
AcDbEntity
  8
0
 62
     7
100
AcDbText
 10
157.947112
 20
187.498927
 30
0.0
 40
2.5
  1
568
 41
0.7695
  7
FontTableH_0
 72
     5
 11
163.572112
 21
187.498927
 31
0.0
100
AcDbText
  0
TEXT
  5
27D
100
AcDbEntity
  8
0
 62
     7
100
AcDbText
 10
157.947112
 20
184.473927
 30
0.0
 40
2.5
  1
533
 41
0.7695
  7
FontTableH_0
 72
     5
 11
163.572112
 21
184.473927
 31
0.0
100
AcDbText
  0
TEXT
  5
27E
100
AcDbEntity
  8
0
 62
     7
100
AcDbText
 10
157.947112
 20
181.448927
 30
0.0
 40
2.5
  1
507
 41
0.7695
  7
FontTableH_0
 72
     5
 11
163.572112
 21
181.448927
 31
0.0
100
AcDbText
  0
TEXT
  5
27F
100
AcDbEntity
  8
0
 62
     7
100
AcDbText
 10
157.947112
 20
178.423927
 30
0.0
 40
2.5
  1
475
 41
0.7695
  7
FontTableH_0
 72
     5
 11
163.572112
 21
178.423927
 31
0.0
100
AcDbText
  0
TEXT
  5
280
100
AcDbEntity
  8
0
 62
     7
100
AcDbText
 10
157.947112
 20
175.398927
 30
0.0
 40
2.5
  1
677
 41
0.7695
  7
FontTableH_0
 72
     5
 11
163.572112
 21
175.398927
 31
0.0
100
AcDbText
  0
TEXT
  5
281
100
AcDbEntity
  8
0
 62
     7
100
AcDbText
 10
157.947112
 20
172.373927
 30
0.0
 40
2.5
  1
641
 41
0.7695
  7
FontTableH_0
 72
     5
 11
163.572112
 21
172.373927
 31
0.0
100
AcDbText
  0
TEXT
  5
282
100
AcDbEntity
  8
0
 62
     7
100
AcDbText
 10
157.947112
 20
169.348927
 30
0.0
 40
2.5
  1
605
 41
0.7695
  7
FontTableH_0
 72
     5
 11
163.572112
 21
169.348927
 31
0.0
100
AcDbText
  0
TEXT
  5
283
100
AcDbEntity
  8
0
 62
     7
100
AcDbText
 10
157.947112
 20
166.323927
 30
0.0
 40
2.5
  1
570
 41
0.7695
  7
FontTableH_0
 72
     5
 11
163.572112
 21
166.323927
 31
0.0
100
AcDbText
  0
TEXT
  5
284
100
AcDbEntity
  8
0
 62
     7
100
AcDbText
 10
157.947112
 20
163.298927
 30
0.0
 40
2.5
  1
544
 41
0.7695
  7
FontTableH_0
 72
     5
 11
163.572112
 21
163.298927
 31
0.0
100
AcDbText
  0
TEXT
  5
285
100
AcDbEntity
  8
0
 62
     7
100
AcDbText
 10
157.947112
 20
160.273927
 30
0.0
 40
2.5
  1
512
 41
0.7695
  7
FontTableH_0
 72
     5
 11
163.572112
 21
160.273927
 31
0.0
100
AcDbText
  0
TEXT
  5
286
100
AcDbEntity
  8
0
 62
     7
100
AcDbText
 10
157.947112
 20
157.248927
 30
0.0
 40
2.5
  1
747
 41
0.7695
  7
FontTableH_0
 72
     5
 11
163.572112
 21
157.248927
 31
0.0
100
AcDbText
  0
TEXT
  5
287
100
AcDbEntity
  8
0
 62
     7
100
AcDbText
 10
157.947112
 20
154.223927
 30
0.0
 40
2.5
  1
712
 41
0.7695
  7
FontTableH_0
 72
     5
 11
163.572112
 21
154.223927
 31
0.0
100
AcDbText
  0
TEXT
  5
288
100
AcDbEntity
  8
0
 62
     7
100
AcDbText
 10
157.947112
 20
151.198927
 30
0.0
 40
2.5
  1
676
 41
0.7695
  7
FontTableH_0
 72
     5
 11
163.572112
 21
151.198927
 31
0.0
100
AcDbText
  0
TEXT
  5
289
100
AcDbEntity
  8
0
 62
     7
100
AcDbText
 10
157.947112
 20
148.173927
 30
0.0
 40
2.5
  1
641
 41
0.7695
  7
FontTableH_0
 72
     5
 11
163.572112
 21
148.173927
 31
0.0
100
AcDbText
  0
TEXT
  5
28A
100
AcDbEntity
  8
0
 62
     7
100
AcDbText
 10
157.947112
 20
145.148927
 30
0.0
 40
2.5
  1
605
 41
0.7695
  7
FontTableH_0
 72
     5
 11
163.572112
 21
145.148927
 31
0.0
100
AcDbText
  0
TEXT
  5
28B
100
AcDbEntity
  8
0
 62
     7
100
AcDbText
 10
157.947112
 20
142.123927
 30
0.0
 40
2.5
  1
579
 41
0.7695
  7
FontTableH_0
 72
     5
 11
163.572112
 21
142.123927
 31
0.0
100
AcDbText
  0
TEXT
  5
28C
100
AcDbEntity
  8
0
 62
     7
100
AcDbText
 10
157.947112
 20
139.098927
 30
0.0
 40
2.5
  1
807
 41
0.7695
  7
FontTableH_0
 72
     5
 11
163.572112
 21
139.098927
 31
0.0
100
AcDbText
  0
TEXT
  5
28D
100
AcDbEntity
  8
0
 62
     7
100
AcDbText
 10
157.947112
 20
136.073928
 30
0.0
 40
2.5
  1
782
 41
0.7695
  7
FontTableH_0
 72
     5
 11
163.572112
 21
136.073928
 31
0.0
100
AcDbText
  0
TEXT
  5
28E
100
AcDbEntity
  8
0
 62
     7
100
AcDbText
 10
157.947112
 20
133.048928
 30
0.0
 40
2.5
  1
747
 41
0.7695
  7
FontTableH_0
 72
     5
 11
163.572112
 21
133.048928
 31
0.0
100
AcDbText
  0
TEXT
  5
28F
100
AcDbEntity
  8
0
 62
     7
100
AcDbText
 10
157.947112
 20
130.023928
 30
0.0
 40
2.5
  1
711
 41
0.7695
  7
FontTableH_0
 72
     5
 11
163.572112
 21
130.023928
 31
0.0
100
AcDbText
  0
TEXT
  5
290
100
AcDbEntity
  8
0
 62
     7
100
AcDbText
 10
157.947112
 20
126.998928
 30
0.0
 40
2.5
  1
676
 41
0.7695
  7
FontTableH_0
 72
     5
 11
163.572112
 21
126.998928
 31
0.0
100
AcDbText
  0
TEXT
  5
291
100
AcDbEntity
  8
0
 62
     7
100
AcDbText
 10
157.947112
 20
123.973928
 30
0.0
 40
2.5
  1
640
 41
0.7695
  7
FontTableH_0
 72
     5
 11
163.572112
 21
123.973928
 31
0.0
100
AcDbText
  0
TEXT
  5
292
100
AcDbEntity
  8
0
 62
     7
100
AcDbText
 10
157.947112
 20
120.948928
 30
0.0
 40
2.5
  1
615
 41
0.7695
  7
FontTableH_0
 72
     5
 11
163.572112
 21
120.948928
 31
0.0
100
AcDbText
  0
TEXT
  5
293
100
AcDbEntity
  8
0
 62
     7
100
AcDbText
 10
157.947112
 20
117.923928
 30
0.0
 40
2.5
  1
868
 41
0.7695
  7
FontTableH_0
 72
     5
 11
163.572112
 21
117.923928
 31
0.0
100
AcDbText
  0
TEXT
  5
294
100
AcDbEntity
  8
0
 62
     7
100
AcDbText
 10
157.947112
 20
114.898928
 30
0.0
 40
2.5
  1
843
 41
0.7695
  7
FontTableH_0
 72
     5
 11
163.572112
 21
114.898928
 31
0.0
100
AcDbText
  0
TEXT
  5
295
100
AcDbEntity
  8
0
 62
     7
100
AcDbText
 10
157.947112
 20
111.873928
 30
0.0
 40
2.5
  1
818
 41
0.7695
  7
FontTableH_0
 72
     5
 11
163.572112
 21
111.873928
 31
0.0
100
AcDbText
  0
TEXT
  5
296
100
AcDbEntity
  8
0
 62
     7
100
AcDbText
 10
157.947112
 20
108.848928
 30
0.0
 40
2.5
  1
783
 41
0.7695
  7
FontTableH_0
 72
     5
 11
163.572112
 21
108.848928
 31
0.0
100
AcDbText
  0
TEXT
  5
297
100
AcDbEntity
  8
0
 62
     7
100
AcDbText
 10
157.947112
 20
105.823928
 30
0.0
 40
2.5
  1
747
 41
0.7695
  7
FontTableH_0
 72
     5
 11
163.572112
 21
105.823928
 31
0.0
100
AcDbText
  0
TEXT
  5
298
100
AcDbEntity
  8
0
 62
     7
100
AcDbText
 10
157.947112
 20
102.798928
 30
0.0
 40
2.5
  1
711
 41
0.7695
  7
FontTableH_0
 72
     5
 11
163.572112
 21
102.798928
 31
0.0
100
AcDbText
  0
TEXT
  5
299
100
AcDbEntity
  8
0
 62
     7
100
AcDbText
 10
157.947112
 20
99.773928
 30
0.0
 40
2.5
  1
676
 41
0.7695
  7
FontTableH_0
 72
     5
 11
163.572112
 21
99.773928
 31
0.0
100
AcDbText
  0
TEXT
  5
29A
100
AcDbEntity
  8
0
 62
     7
100
AcDbText
 10
157.947112
 20
96.748928
 30
0.0
 40
2.5
  1
650
 41
0.7695
  7
FontTableH_0
 72
     5
 11
163.572112
 21
96.748928
 31
0.0
100
AcDbText
  0
TEXT
  5
29B
100
AcDbEntity
  8
0
 62
     7
100
AcDbText
 10
157.947112
 20
93.723928
 30
0.0
 40
2.5
  1
990
 41
0.7695
  7
FontTableH_0
 72
     5
 11
163.572112
 21
93.723928
 31
0.0
100
AcDbText
  0
TEXT
  5
29C
100
AcDbEntity
  8
0
 62
     7
100
AcDbText
 10
157.947112
 20
90.698928
 30
0.0
 40
2.5
  1
933
 41
0.7695
  7
FontTableH_0
 72
     5
 11
163.572112
 21
90.698928
 31
0.0
100
AcDbText
  0
TEXT
  5
29D
100
AcDbEntity
  8
0
 62
     7
100
AcDbText
 10
157.947112
 20
87.673928
 30
0.0
 40
2.5
  1
908
 41
0.7695
  7
FontTableH_0
 72
     5
 11
163.572112
 21
87.673928
 31
0.0
100
AcDbText
  0
TEXT
  5
29E
100
AcDbEntity
  8
0
 62
     7
100
AcDbText
 10
157.947112
 20
84.648928
 30
0.0
 40
2.5
  1
883
 41
0.7695
  7
FontTableH_0
 72
     5
 11
163.572112
 21
84.648928
 31
0.0
100
AcDbText
  0
TEXT
  5
29F
100
AcDbEntity
  8
0
 62
     7
100
AcDbText
 10
157.947112
 20
81.623928
 30
0.0
 40
2.5
  1
848
 41
0.7695
  7
FontTableH_0
 72
     5
 11
163.572112
 21
81.623928
 31
0.0
100
AcDbText
  0
TEXT
  5
2A0
100
AcDbEntity
  8
0
 62
     7
100
AcDbText
 10
157.947112
 20
78.598928
 30
0.0
 40
2.5
  1
812
 41
0.7695
  7
FontTableH_0
 72
     5
 11
163.572112
 21
78.598928
 31
0.0
100
AcDbText
  0
TEXT
  5
2A1
100
AcDbEntity
  8
0
 62
     7
100
AcDbText
 10
157.947112
 20
75.573928
 30
0.0
 40
2.5
  1
776
 41
0.7695
  7
FontTableH_0
 72
     5
 11
163.572112
 21
75.573928
 31
0.0
100
AcDbText
  0
TEXT
  5
2A2
100
AcDbEntity
  8
0
 62
     7
100
AcDbText
 10
157.947112
 20
72.548928
 30
0.0
 40
2.5
  1
741
 41
0.7695
  7
FontTableH_0
 72
     5
 11
163.572112
 21
72.548928
 31
0.0
100
AcDbText
  0
TEXT
  5
2A3
100
AcDbEntity
  8
0
 62
     7
100
AcDbText
 10
157.947112
 20
69.523928
 30
0.0
 40
2.5
  1
715
 41
0.7695
  7
FontTableH_0
 72
     5
 11
163.572112
 21
69.523928
 31
0.0
100
AcDbText
  0
TEXT
  5
2A4
100
AcDbEntity
  8
0
 62
     7
100
AcDbText
 10
184.347112
 20
214.723927
 30
0.0
 40
2.5
  1
461
 41
0.7695
  7
FontTableH_0
 72
     5
 11
189.972112
 21
214.723927
 31
0.0
100
AcDbText
  0
TEXT
  5
2A5
100
AcDbEntity
  8
0
 62
     7
100
AcDbText
 10
184.347112
 20
187.498927
 30
0.0
 40
2.5
  1
568
 41
0.7695
  7
FontTableH_0
 72
     5
 11
189.972112
 21
187.498927
 31
0.0
100
AcDbText
  0
TEXT
  5
2A6
100
AcDbEntity
  8
0
 62
     7
100
AcDbText
 10
184.347112
 20
157.248927
 30
0.0
 40
2.5
  1
747
 41
0.7695
  7
FontTableH_0
 72
     5
 11
189.972112
 21
157.248927
 31
0.0
100
AcDbText
  0
TEXT
  5
2A7
100
AcDbEntity
  8
0
 62
     7
100
AcDbText
 10
184.347112
 20
139.098927
 30
0.0
 40
2.5
  1
807
 41
0.7695
  7
FontTableH_0
 72
     5
 11
189.972112
 21
139.098927
 31
0.0
100
AcDbText
  0
TEXT
  5
2A8
100
AcDbEntity
  8
0
 62
     7
100
AcDbText
 10
184.347112
 20
117.923928
 30
0.0
 40
2.5
  1
868
 41
0.7695
  7
FontTableH_0
 72
     5
 11
189.972112
 21
117.923928
 31
0.0
100
AcDbText
  0
TEXT
  5
2A9
100
AcDbEntity
  8
0
 62
     7
100
AcDbText
 10
184.347112
 20
93.723928
 30
0.0
 40
2.5
  1
990
 41
0.7695
  7
FontTableH_0
 72
     5
 11
189.972112
 21
93.723928
 31
0.0
100
AcDbText
  0
TEXT
  5
2AA
100
AcDbEntity
  8
0
 62
     7
100
AcDbText
 10
171.171806
 20
227.610117
 30
0.0
 40
3.0
  1
Ｅ
 41
0.7695
  7
FontTableH_0
 72
     5
 11
174.171806
 21
227.610117
 31
0.0
100
AcDbText
  0
TEXT
  5
2AB
100
AcDbEntity
  8
0
 62
     7
100
AcDbText
 10
184.371806
 20
227.610117
 30
0.0
 40
3.0
  1
Ｆ
 41
0.7695
  7
FontTableH_0
 72
     5
 11
187.371806
 21
227.610117
 31
0.0
100
AcDbText
  0
TEXT
  5
2AC
100
AcDbEntity
  8
0
 62
     7
100
AcDbText
 10
171.147112
 20
223.798927
 30
0.0
 40
2.5
  1
234
 41
0.7695
  7
FontTableH_0
 72
     5
 11
176.772112
 21
223.798927
 31
0.0
100
AcDbText
  0
TEXT
  5
2AD
100
AcDbEntity
  8
0
 62
     7
100
AcDbText
 10
171.147112
 20
220.773927
 30
0.0
 40
2.5
  1
216
 41
0.7695
  7
FontTableH_0
 72
     5
 11
176.772112
 21
220.773927
 31
0.0
100
AcDbText
  0
TEXT
  5
2AE
100
AcDbEntity
  8
0
 62
     7
100
AcDbText
 10
171.147112
 20
217.748927
 30
0.0
 40
2.5
  1
198
 41
0.7695
  7
FontTableH_0
 72
     5
 11
176.772112
 21
217.748927
 31
0.0
100
AcDbText
  0
TEXT
  5
2AF
100
AcDbEntity
  8
0
 62
     7
100
AcDbText
 10
171.147112
 20
214.723927
 30
0.0
 40
2.5
  1
245
 41
0.7695
  7
FontTableH_0
 72
     5
 11
176.772112
 21
214.723927
 31
0.0
100
AcDbText
  0
TEXT
  5
2B0
100
AcDbEntity
  8
0
 62
     7
100
AcDbText
 10
171.147112
 20
211.698927
 30
0.0
 40
2.5
  1
209
 41
0.7695
  7
FontTableH_0
 72
     5
 11
176.772112
 21
211.698927
 31
0.0
100
AcDbText
  0
TEXT
  5
2B1
100
AcDbEntity
  8
0
 62
     7
100
AcDbText
 10
171.147112
 20
208.673927
 30
0.0
 40
2.5
  1
191
 41
0.7695
  7
FontTableH_0
 72
     5
 11
176.772112
 21
208.673927
 31
0.0
100
AcDbText
  0
TEXT
  5
2B2
100
AcDbEntity
  8
0
 62
     7
100
AcDbText
 10
171.147112
 20
205.648927
 30
0.0
 40
2.5
  1
173
 41
0.7695
  7
FontTableH_0
 72
     5
 11
176.772112
 21
205.648927
 31
0.0
100
AcDbText
  0
TEXT
  5
2B3
100
AcDbEntity
  8
0
 62
     7
100
AcDbText
 10
171.147112
 20
202.623927
 30
0.0
 40
2.5
  1
265
 41
0.7695
  7
FontTableH_0
 72
     5
 11
176.772112
 21
202.623927
 31
0.0
100
AcDbText
  0
TEXT
  5
2B4
100
AcDbEntity
  8
0
 62
     7
100
AcDbText
 10
171.147112
 20
199.598927
 30
0.0
 40
2.5
  1
229
 41
0.7695
  7
FontTableH_0
 72
     5
 11
176.772112
 21
199.598927
 31
0.0
100
AcDbText
  0
TEXT
  5
2B5
100
AcDbEntity
  8
0
 62
     7
100
AcDbText
 10
171.147112
 20
196.573927
 30
0.0
 40
2.5
  1
193
 41
0.7695
  7
FontTableH_0
 72
     5
 11
176.772112
 21
196.573927
 31
0.0
100
AcDbText
  0
TEXT
  5
2B6
100
AcDbEntity
  8
0
 62
     7
100
AcDbText
 10
171.147112
 20
193.548927
 30
0.0
 40
2.5
  1
175
 41
0.7695
  7
FontTableH_0
 72
     5
 11
176.772112
 21
193.548927
 31
0.0
100
AcDbText
  0
TEXT
  5
2B7
100
AcDbEntity
  8
0
 62
     7
100
AcDbText
 10
171.147112
 20
190.523927
 30
0.0
 40
2.5
  1
286
 41
0.7695
  7
FontTableH_0
 72
     5
 11
176.772112
 21
190.523927
 31
0.0
100
AcDbText
  0
TEXT
  5
2B8
100
AcDbEntity
  8
0
 62
     7
100
AcDbText
 10
171.147112
 20
187.498927
 30
0.0
 40
2.5
  1
250
 41
0.7695
  7
FontTableH_0
 72
     5
 11
176.772112
 21
187.498927
 31
0.0
100
AcDbText
  0
TEXT
  5
2B9
100
AcDbEntity
  8
0
 62
     7
100
AcDbText
 10
171.147112
 20
184.473927
 30
0.0
 40
2.5
  1
214
 41
0.7695
  7
FontTableH_0
 72
     5
 11
176.772112
 21
184.473927
 31
0.0
100
AcDbText
  0
TEXT
  5
2BA
100
AcDbEntity
  8
0
 62
     7
100
AcDbText
 10
171.147112
 20
181.448927
 30
0.0
 40
2.5
  1
178
 41
0.7695
  7
FontTableH_0
 72
     5
 11
176.772112
 21
181.448927
 31
0.0
100
AcDbText
  0
TEXT
  5
2BB
100
AcDbEntity
  8
0
 62
     7
100
AcDbText
 10
171.147112
 20
178.423927
 30
0.0
 40
2.5
  1
160
 41
0.7695
  7
FontTableH_0
 72
     5
 11
176.772112
 21
178.423927
 31
0.0
100
AcDbText
  0
TEXT
  5
2BC
100
AcDbEntity
  8
0
 62
     7
100
AcDbText
 10
171.147112
 20
175.398927
 30
0.0
 40
2.5
  1
307
 41
0.7695
  7
FontTableH_0
 72
     5
 11
176.772112
 21
175.398927
 31
0.0
100
AcDbText
  0
TEXT
  5
2BD
100
AcDbEntity
  8
0
 62
     7
100
AcDbText
 10
171.147112
 20
172.373927
 30
0.0
 40
2.5
  1
270
 41
0.7695
  7
FontTableH_0
 72
     5
 11
176.772112
 21
172.373927
 31
0.0
100
AcDbText
  0
TEXT
  5
2BE
100
AcDbEntity
  8
0
 62
     7
100
AcDbText
 10
171.147112
 20
169.348927
 30
0.0
 40
2.5
  1
234
 41
0.7695
  7
FontTableH_0
 72
     5
 11
176.772112
 21
169.348927
 31
0.0
100
AcDbText
  0
TEXT
  5
2BF
100
AcDbEntity
  8
0
 62
     7
100
AcDbText
 10
171.147112
 20
166.323927
 30
0.0
 40
2.5
  1
198
 41
0.7695
  7
FontTableH_0
 72
     5
 11
176.772112
 21
166.323927
 31
0.0
100
AcDbText
  0
TEXT
  5
2C0
100
AcDbEntity
  8
0
 62
     7
100
AcDbText
 10
171.147112
 20
163.298927
 30
0.0
 40
2.5
  1
162
 41
0.7695
  7
FontTableH_0
 72
     5
 11
176.772112
 21
163.298927
 31
0.0
100
AcDbText
  0
TEXT
  5
2C1
100
AcDbEntity
  8
0
 62
     7
100
AcDbText
 10
171.147112
 20
160.273927
 30
0.0
 40
2.5
  1
144
 41
0.7695
  7
FontTableH_0
 72
     5
 11
176.772112
 21
160.273927
 31
0.0
100
AcDbText
  0
TEXT
  5
2C2
100
AcDbEntity
  8
0
 62
     7
100
AcDbText
 10
171.147112
 20
157.248927
 30
0.0
 40
2.5
  1
327
 41
0.7695
  7
FontTableH_0
 72
     5
 11
176.772112
 21
157.248927
 31
0.0
100
AcDbText
  0
TEXT
  5
2C3
100
AcDbEntity
  8
0
 62
     7
100
AcDbText
 10
171.147112
 20
154.223927
 30
0.0
 40
2.5
  1
292
 41
0.7695
  7
FontTableH_0
 72
     5
 11
176.772112
 21
154.223927
 31
0.0
100
AcDbText
  0
TEXT
  5
2C4
100
AcDbEntity
  8
0
 62
     7
100
AcDbText
 10
171.147112
 20
151.198927
 30
0.0
 40
2.5
  1
255
 41
0.7695
  7
FontTableH_0
 72
     5
 11
176.772112
 21
151.198927
 31
0.0
100
AcDbText
  0
TEXT
  5
2C5
100
AcDbEntity
  8
0
 62
     7
100
AcDbText
 10
171.147112
 20
148.173927
 30
0.0
 40
2.5
  1
219
 41
0.7695
  7
FontTableH_0
 72
     5
 11
176.772112
 21
148.173927
 31
0.0
100
AcDbText
  0
TEXT
  5
2C6
100
AcDbEntity
  8
0
 62
     7
100
AcDbText
 10
171.147112
 20
145.148927
 30
0.0
 40
2.5
  1
183
 41
0.7695
  7
FontTableH_0
 72
     5
 11
176.772112
 21
145.148927
 31
0.0
100
AcDbText
  0
TEXT
  5
2C7
100
AcDbEntity
  8
0
 62
     7
100
AcDbText
 10
171.147112
 20
142.123927
 30
0.0
 40
2.5
  1
147
 41
0.7695
  7
FontTableH_0
 72
     5
 11
176.772112
 21
142.123927
 31
0.0
100
AcDbText
  0
TEXT
  5
2C8
100
AcDbEntity
  8
0
 62
     7
100
AcDbText
 10
171.147112
 20
139.098927
 30
0.0
 40
2.5
  1
337
 41
0.7695
  7
FontTableH_0
 72
     5
 11
176.772112
 21
139.098927
 31
0.0
100
AcDbText
  0
TEXT
  5
2C9
100
AcDbEntity
  8
0
 62
     7
100
AcDbText
 10
171.147112
 20
136.073928
 30
0.0
 40
2.5
  1
302
 41
0.7695
  7
FontTableH_0
 72
     5
 11
176.772112
 21
136.073928
 31
0.0
100
AcDbText
  0
TEXT
  5
2CA
100
AcDbEntity
  8
0
 62
     7
100
AcDbText
 10
171.147112
 20
133.048928
 30
0.0
 40
2.5
  1
267
 41
0.7695
  7
FontTableH_0
 72
     5
 11
176.772112
 21
133.048928
 31
0.0
100
AcDbText
  0
TEXT
  5
2CB
100
AcDbEntity
  8
0
 62
     7
100
AcDbText
 10
171.147112
 20
130.023928
 30
0.0
 40
2.5
  1
230
 41
0.7695
  7
FontTableH_0
 72
     5
 11
176.772112
 21
130.023928
 31
0.0
100
AcDbText
  0
TEXT
  5
2CC
100
AcDbEntity
  8
0
 62
     7
100
AcDbText
 10
171.147112
 20
126.998928
 30
0.0
 40
2.5
  1
194
 41
0.7695
  7
FontTableH_0
 72
     5
 11
176.772112
 21
126.998928
 31
0.0
100
AcDbText
  0
TEXT
  5
2CD
100
AcDbEntity
  8
0
 62
     7
100
AcDbText
 10
171.147112
 20
123.973928
 30
0.0
 40
2.5
  1
158
 41
0.7695
  7
FontTableH_0
 72
     5
 11
176.772112
 21
123.973928
 31
0.0
100
AcDbText
  0
TEXT
  5
2CE
100
AcDbEntity
  8
0
 62
     7
100
AcDbText
 10
171.147112
 20
120.948928
 30
0.0
 40
2.5
  1
122
 41
0.7695
  7
FontTableH_0
 72
     5
 11
176.772112
 21
120.948928
 31
0.0
100
AcDbText
  0
TEXT
  5
2CF
100
AcDbEntity
  8
0
 62
     7
100
AcDbText
 10
171.147112
 20
117.923928
 30
0.0
 40
2.5
  1
348
 41
0.7695
  7
FontTableH_0
 72
     5
 11
176.772112
 21
117.923928
 31
0.0
100
AcDbText
  0
TEXT
  5
2D0
100
AcDbEntity
  8
0
 62
     7
100
AcDbText
 10
171.147112
 20
114.898928
 30
0.0
 40
2.5
  1
312
 41
0.7695
  7
FontTableH_0
 72
     5
 11
176.772112
 21
114.898928
 31
0.0
100
AcDbText
  0
TEXT
  5
2D1
100
AcDbEntity
  8
0
 62
     7
100
AcDbText
 10
171.147112
 20
111.873928
 30
0.0
 40
2.5
  1
277
 41
0.7695
  7
FontTableH_0
 72
     5
 11
176.772112
 21
111.873928
 31
0.0
100
AcDbText
  0
TEXT
  5
2D2
100
AcDbEntity
  8
0
 62
     7
100
AcDbText
 10
171.147112
 20
108.848928
 30
0.0
 40
2.5
  1
242
 41
0.7695
  7
FontTableH_0
 72
     5
 11
176.772112
 21
108.848928
 31
0.0
100
AcDbText
  0
TEXT
  5
2D3
100
AcDbEntity
  8
0
 62
     7
100
AcDbText
 10
171.147112
 20
105.823928
 30
0.0
 40
2.5
  1
205
 41
0.7695
  7
FontTableH_0
 72
     5
 11
176.772112
 21
105.823928
 31
0.0
100
AcDbText
  0
TEXT
  5
2D4
100
AcDbEntity
  8
0
 62
     7
100
AcDbText
 10
171.147112
 20
102.798928
 30
0.0
 40
2.5
  1
169
 41
0.7695
  7
FontTableH_0
 72
     5
 11
176.772112
 21
102.798928
 31
0.0
100
AcDbText
  0
TEXT
  5
2D5
100
AcDbEntity
  8
0
 62
     7
100
AcDbText
 10
171.147112
 20
99.773928
 30
0.0
 40
2.5
  1
133
 41
0.7695
  7
FontTableH_0
 72
     5
 11
176.772112
 21
99.773928
 31
0.0
100
AcDbText
  0
TEXT
  5
2D6
100
AcDbEntity
  8
0
 62
     7
100
AcDbText
 10
171.147112
 20
90.698928
 30
0.0
 40
2.5
  1
312
 41
0.7695
  7
FontTableH_0
 72
     5
 11
176.772112
 21
90.698928
 31
0.0
100
AcDbText
  0
TEXT
  5
2D7
100
AcDbEntity
  8
0
 62
     7
100
AcDbText
 10
171.147112
 20
87.673928
 30
0.0
 40
2.5
  1
276
 41
0.7695
  7
FontTableH_0
 72
     5
 11
176.772112
 21
87.673928
 31
0.0
100
AcDbText
  0
TEXT
  5
2D8
100
AcDbEntity
  8
0
 62
     7
100
AcDbText
 10
171.147112
 20
84.648928
 30
0.0
 40
2.5
  1
241
 41
0.7695
  7
FontTableH_0
 72
     5
 11
176.772112
 21
84.648928
 31
0.0
100
AcDbText
  0
TEXT
  5
2D9
100
AcDbEntity
  8
0
 62
     7
100
AcDbText
 10
171.147112
 20
81.623928
 30
0.0
 40
2.5
  1
205
 41
0.7695
  7
FontTableH_0
 72
     5
 11
176.772112
 21
81.623928
 31
0.0
100
AcDbText
  0
TEXT
  5
2DA
100
AcDbEntity
  8
0
 62
     7
100
AcDbText
 10
171.147112
 20
78.598928
 30
0.0
 40
2.5
  1
169
 41
0.7695
  7
FontTableH_0
 72
     5
 11
176.772112
 21
78.598928
 31
0.0
100
AcDbText
  0
TEXT
  5
2DB
100
AcDbEntity
  8
0
 62
     7
100
AcDbText
 10
171.147112
 20
75.573928
 30
0.0
 40
2.5
  1
133
 41
0.7695
  7
FontTableH_0
 72
     5
 11
176.772112
 21
75.573928
 31
0.0
100
AcDbText
  0
TEXT
  5
2DC
100
AcDbEntity
  8
0
 62
     7
100
AcDbText
 10
184.347112
 20
223.798927
 30
0.0
 40
2.5
  1
399
 41
0.7695
  7
FontTableH_0
 72
     5
 11
189.972112
 21
223.798927
 31
0.0
100
AcDbText
  0
TEXT
  5
2DD
100
AcDbEntity
  8
0
 62
     7
100
AcDbText
 10
184.347112
 20
220.773927
 30
0.0
 40
2.5
  1
381
 41
0.7695
  7
FontTableH_0
 72
     5
 11
189.972112
 21
220.773927
 31
0.0
100
AcDbText
  0
TEXT
  5
2DE
100
AcDbEntity
  8
0
 62
     7
100
AcDbText
 10
184.347112
 20
217.748927
 30
0.0
 40
2.5
  1
363
 41
0.7695
  7
FontTableH_0
 72
     5
 11
189.972112
 21
217.748927
 31
0.0
100
AcDbText
  0
TEXT
  5
2DF
100
AcDbEntity
  8
0
 62
     7
100
AcDbText
 10
184.347112
 20
211.698927
 30
0.0
 40
2.5
  1
425
 41
0.7695
  7
FontTableH_0
 72
     5
 11
189.972112
 21
211.698927
 31
0.0
100
AcDbText
  0
TEXT
  5
2E0
100
AcDbEntity
  8
0
 62
     7
100
AcDbText
 10
184.347112
 20
208.673927
 30
0.0
 40
2.5
  1
407
 41
0.7695
  7
FontTableH_0
 72
     5
 11
189.972112
 21
208.673927
 31
0.0
100
AcDbText
  0
TEXT
  5
2E1
100
AcDbEntity
  8
0
 62
     7
100
AcDbText
 10
184.347112
 20
205.648927
 30
0.0
 40
2.5
  1
389
 41
0.7695
  7
FontTableH_0
 72
     5
 11
189.972112
 21
205.648927
 31
0.0
100
AcDbText
  0
TEXT
  5
2E2
100
AcDbEntity
  8
0
 62
     7
100
AcDbText
 10
184.347112
 20
202.623927
 30
0.0
 40
2.5
  1
532
 41
0.7695
  7
FontTableH_0
 72
     5
 11
189.972112
 21
202.623927
 31
0.0
100
AcDbText
  0
TEXT
  5
2E3
100
AcDbEntity
  8
0
 62
     7
100
AcDbText
 10
184.347112
 20
69.523928
 30
0.0
 40
2.5
  1
673
 41
0.7695
  7
FontTableH_0
 72
     5
 11
189.972112
 21
69.523928
 31
0.0
100
AcDbText
  0
TEXT
  5
2E4
100
AcDbEntity
  8
0
 62
     7
100
AcDbText
 10
184.347112
 20
72.548928
 30
0.0
 40
2.5
  1
708
 41
0.7695
  7
FontTableH_0
 72
     5
 11
189.972112
 21
72.548928
 31
0.0
100
AcDbText
  0
TEXT
  5
2E5
100
AcDbEntity
  8
0
 62
     7
100
AcDbText
 10
184.347112
 20
75.573928
 30
0.0
 40
2.5
  1
745
 41
0.7695
  7
FontTableH_0
 72
     5
 11
189.972112
 21
75.573928
 31
0.0
100
AcDbText
  0
TEXT
  5
2E6
100
AcDbEntity
  8
0
 62
     7
100
AcDbText
 10
184.347112
 20
78.598928
 30
0.0
 40
2.5
  1
754
 41
0.7695
  7
FontTableH_0
 72
     5
 11
189.972112
 21
78.598928
 31
0.0
100
AcDbText
  0
TEXT
  5
2E7
100
AcDbEntity
  8
0
 62
     7
100
AcDbText
 10
184.347112
 20
81.623928
 30
0.0
 40
2.5
  1
818
 41
0.7695
  7
FontTableH_0
 72
     5
 11
189.972112
 21
81.623928
 31
0.0
100
AcDbText
  0
TEXT
  5
2E8
100
AcDbEntity
  8
0
 62
     7
100
AcDbText
 10
184.347112
 20
84.648928
 30
0.0
 40
2.5
  1
853
 41
0.7695
  7
FontTableH_0
 72
     5
 11
189.972112
 21
84.648928
 31
0.0
100
AcDbText
  0
TEXT
  5
2E9
100
AcDbEntity
  8
0
 62
     7
100
AcDbText
 10
184.347112
 20
87.673928
 30
0.0
 40
2.5
  1
889
 41
0.7695
  7
FontTableH_0
 72
     5
 11
189.972112
 21
87.673928
 31
0.0
100
AcDbText
  0
TEXT
  5
2EA
100
AcDbEntity
  8
0
 62
     7
100
AcDbText
 10
184.347112
 20
90.698928
 30
0.0
 40
2.5
  1
924
 41
0.7695
  7
FontTableH_0
 72
     5
 11
189.972112
 21
90.698928
 31
0.0
100
AcDbText
  0
TEXT
  5
2EB
100
AcDbEntity
  8
0
 62
     7
100
AcDbText
 10
184.347112
 20
96.748928
 30
0.0
 40
2.5
  1
617
 41
0.7695
  7
FontTableH_0
 72
     5
 11
189.972112
 21
96.748928
 31
0.0
100
AcDbText
  0
TEXT
  5
2EC
100
AcDbEntity
  8
0
 62
     7
100
AcDbText
 10
184.347112
 20
99.773928
 30
0.0
 40
2.5
  1
653
 41
0.7695
  7
FontTableH_0
 72
     5
 11
189.972112
 21
99.773928
 31
0.0
100
AcDbText
  0
TEXT
  5
2ED
100
AcDbEntity
  8
0
 62
     7
100
AcDbText
 10
184.347112
 20
102.798928
 30
0.0
 40
2.5
  1
689
 41
0.7695
  7
FontTableH_0
 72
     5
 11
189.972112
 21
102.798928
 31
0.0
100
AcDbText
  0
TEXT
  5
2EE
100
AcDbEntity
  8
0
 62
     7
100
AcDbText
 10
184.347112
 20
105.823928
 30
0.0
 40
2.5
  1
725
 41
0.7695
  7
FontTableH_0
 72
     5
 11
189.972112
 21
105.823928
 31
0.0
100
AcDbText
  0
TEXT
  5
2EF
100
AcDbEntity
  8
0
 62
     7
100
AcDbText
 10
184.347112
 20
108.848928
 30
0.0
 40
2.5
  1
762
 41
0.7695
  7
FontTableH_0
 72
     5
 11
189.972112
 21
108.848928
 31
0.0
100
AcDbText
  0
TEXT
  5
2F0
100
AcDbEntity
  8
0
 62
     7
100
AcDbText
 10
184.347112
 20
199.598927
 30
0.0
 40
2.5
  1
496
 41
0.7695
  7
FontTableH_0
 72
     5
 11
189.972112
 21
199.598927
 31
0.0
100
AcDbText
  0
TEXT
  5
2F1
100
AcDbEntity
  8
0
 62
     7
100
AcDbText
 10
184.347112
 20
196.573927
 30
0.0
 40
2.5
  1
460
 41
0.7695
  7
FontTableH_0
 72
     5
 11
189.972112
 21
196.573927
 31
0.0
100
AcDbText
  0
TEXT
  5
2F2
100
AcDbEntity
  8
0
 62
     7
100
AcDbText
 10
184.347112
 20
193.548927
 30
0.0
 40
2.5
  1
442
 41
0.7695
  7
FontTableH_0
 72
     5
 11
189.972112
 21
193.548927
 31
0.0
100
AcDbText
  0
TEXT
  5
2F3
100
AcDbEntity
  8
0
 62
     7
100
AcDbText
 10
184.347112
 20
190.523927
 30
0.0
 40
2.5
  1
604
 41
0.7695
  7
FontTableH_0
 72
     5
 11
189.972112
 21
190.523927
 31
0.0
100
AcDbText
  0
TEXT
  5
2F4
100
AcDbEntity
  8
0
 62
     7
100
AcDbText
 10
184.347112
 20
184.473927
 30
0.0
 40
2.5
  1
532
 41
0.7695
  7
FontTableH_0
 72
     5
 11
189.972112
 21
184.473927
 31
0.0
100
AcDbText
  0
TEXT
  5
2F5
100
AcDbEntity
  8
0
 62
     7
100
AcDbText
 10
184.347112
 20
181.448927
 30
0.0
 40
2.5
  1
496
 41
0.7695
  7
FontTableH_0
 72
     5
 11
189.972112
 21
181.448927
 31
0.0
100
AcDbText
  0
TEXT
  5
2F6
100
AcDbEntity
  8
0
 62
     7
100
AcDbText
 10
184.347112
 20
178.423927
 30
0.0
 40
2.5
  1
478
 41
0.7695
  7
FontTableH_0
 72
     5
 11
189.972112
 21
178.423927
 31
0.0
100
AcDbText
  0
TEXT
  5
2F7
100
AcDbEntity
  8
0
 62
     7
100
AcDbText
 10
184.347112
 20
175.398927
 30
0.0
 40
2.5
  1
677
 41
0.7695
  7
FontTableH_0
 72
     5
 11
189.972112
 21
175.398927
 31
0.0
100
AcDbText
  0
TEXT
  5
2F8
100
AcDbEntity
  8
0
 62
     7
100
AcDbText
 10
184.347112
 20
172.373927
 30
0.0
 40
2.5
  1
640
 41
0.7695
  7
FontTableH_0
 72
     5
 11
189.972112
 21
172.373927
 31
0.0
100
AcDbText
  0
TEXT
  5
2F9
100
AcDbEntity
  8
0
 62
     7
100
AcDbText
 10
184.347112
 20
169.348927
 30
0.0
 40
2.5
  1
604
 41
0.7695
  7
FontTableH_0
 72
     5
 11
189.972112
 21
169.348927
 31
0.0
100
AcDbText
  0
TEXT
  5
2FA
100
AcDbEntity
  8
0
 62
     7
100
AcDbText
 10
184.347112
 20
166.323927
 30
0.0
 40
2.5
  1
568
 41
0.7695
  7
FontTableH_0
 72
     5
 11
189.972112
 21
166.323927
 31
0.0
100
AcDbText
  0
TEXT
  5
2FB
100
AcDbEntity
  8
0
 62
     7
100
AcDbText
 10
184.347112
 20
163.298927
 30
0.0
 40
2.5
  1
532
 41
0.7695
  7
FontTableH_0
 72
     5
 11
189.972112
 21
163.298927
 31
0.0
100
AcDbText
  0
TEXT
  5
2FC
100
AcDbEntity
  8
0
 62
     7
100
AcDbText
 10
184.347112
 20
160.273927
 30
0.0
 40
2.5
  1
514
 41
0.7695
  7
FontTableH_0
 72
     5
 11
189.972112
 21
160.273927
 31
0.0
100
AcDbText
  0
TEXT
  5
2FD
100
AcDbEntity
  8
0
 62
     7
100
AcDbText
 10
184.347112
 20
154.223927
 30
0.0
 40
2.5
  1
712
 41
0.7695
  7
FontTableH_0
 72
     5
 11
189.972112
 21
154.223927
 31
0.0
100
AcDbText
  0
TEXT
  5
2FE
100
AcDbEntity
  8
0
 62
     7
100
AcDbText
 10
184.347112
 20
151.198927
 30
0.0
 40
2.5
  1
675
 41
0.7695
  7
FontTableH_0
 72
     5
 11
189.972112
 21
151.198927
 31
0.0
100
AcDbText
  0
TEXT
  5
2FF
100
AcDbEntity
  8
0
 62
     7
100
AcDbText
 10
184.347112
 20
148.173927
 30
0.0
 40
2.5
  1
639
 41
0.7695
  7
FontTableH_0
 72
     5
 11
189.972112
 21
148.173927
 31
0.0
100
AcDbText
  0
TEXT
  5
300
100
AcDbEntity
  8
0
 62
     7
100
AcDbText
 10
184.347112
 20
145.148927
 30
0.0
 40
2.5
  1
603
 41
0.7695
  7
FontTableH_0
 72
     5
 11
189.972112
 21
145.148927
 31
0.0
100
AcDbText
  0
TEXT
  5
301
100
AcDbEntity
  8
0
 62
     7
100
AcDbText
 10
184.347112
 20
142.123927
 30
0.0
 40
2.5
  1
567
 41
0.7695
  7
FontTableH_0
 72
     5
 11
189.972112
 21
142.123927
 31
0.0
100
AcDbText
  0
TEXT
  5
302
100
AcDbEntity
  8
0
 62
     7
100
AcDbText
 10
184.347112
 20
136.073928
 30
0.0
 40
2.5
  1
772
 41
0.7695
  7
FontTableH_0
 72
     5
 11
189.972112
 21
136.073928
 31
0.0
100
AcDbText
  0
TEXT
  5
303
100
AcDbEntity
  8
0
 62
     7
100
AcDbText
 10
184.347112
 20
133.048928
 30
0.0
 40
2.5
  1
737
 41
0.7695
  7
FontTableH_0
 72
     5
 11
189.972112
 21
133.048928
 31
0.0
100
AcDbText
  0
TEXT
  5
304
100
AcDbEntity
  8
0
 62
     7
100
AcDbText
 10
184.347112
 20
130.023928
 30
0.0
 40
2.5
  1
700
 41
0.7695
  7
FontTableH_0
 72
     5
 11
189.972112
 21
130.023928
 31
0.0
100
AcDbText
  0
TEXT
  5
305
100
AcDbEntity
  8
0
 62
     7
100
AcDbText
 10
184.347112
 20
126.998928
 30
0.0
 40
2.5
  1
664
 41
0.7695
  7
FontTableH_0
 72
     5
 11
189.972112
 21
126.998928
 31
0.0
100
AcDbText
  0
TEXT
  5
306
100
AcDbEntity
  8
0
 62
     7
100
AcDbText
 10
184.347112
 20
123.973928
 30
0.0
 40
2.5
  1
628
 41
0.7695
  7
FontTableH_0
 72
     5
 11
189.972112
 21
123.973928
 31
0.0
100
AcDbText
  0
TEXT
  5
307
100
AcDbEntity
  8
0
 62
     7
100
AcDbText
 10
184.347112
 20
120.948928
 30
0.0
 40
2.5
  1
592
 41
0.7695
  7
FontTableH_0
 72
     5
 11
189.972112
 21
120.948928
 31
0.0
100
AcDbText
  0
TEXT
  5
308
100
AcDbEntity
  8
0
 62
     7
100
AcDbText
 10
184.347112
 20
114.898928
 30
0.0
 40
2.5
  1
832
 41
0.7695
  7
FontTableH_0
 72
     5
 11
189.972112
 21
114.898928
 31
0.0
100
AcDbText
  0
TEXT
  5
309
100
AcDbEntity
  8
0
 62
     7
100
AcDbText
 10
184.347112
 20
111.873928
 30
0.0
 40
2.5
  1
797
 41
0.7695
  7
FontTableH_0
 72
     5
 11
189.972112
 21
111.873928
 31
0.0
100
AcDbText
  0
TEXT
  5
30A
100
AcDbEntity
  8
0
 62
     7
100
AcDbText
 10
143.247112
 20
157.248927
 30
0.0
 40
2.5
  1
1074
 41
0.7695
  7
FontTableH_0
 72
     5
 11
150.747112
 21
157.248927
 31
0.0
100
AcDbText
  0
TEXT
  5
30B
100
AcDbEntity
  8
0
 62
     7
100
AcDbText
 10
143.247112
 20
154.223927
 30
0.0
 40
2.5
  1
1004
 41
0.7695
  7
FontTableH_0
 72
     5
 11
150.747112
 21
154.223927
 31
0.0
100
AcDbText
  0
TEXT
  5
30C
100
AcDbEntity
  8
0
 62
     7
100
AcDbText
 10
143.247112
 20
139.098927
 30
0.0
 40
2.5
  1
1144
 41
0.7695
  7
FontTableH_0
 72
     5
 11
150.747112
 21
139.098927
 31
0.0
100
AcDbText
  0
TEXT
  5
30D
100
AcDbEntity
  8
0
 62
     7
100
AcDbText
 10
143.247112
 20
136.073928
 30
0.0
 40
2.5
  1
1074
 41
0.7695
  7
FontTableH_0
 72
     5
 11
150.747112
 21
136.073928
 31
0.0
100
AcDbText
  0
TEXT
  5
30E
100
AcDbEntity
  8
0
 62
     7
100
AcDbText
 10
143.247112
 20
133.048928
 30
0.0
 40
2.5
  1
1004
 41
0.7695
  7
FontTableH_0
 72
     5
 11
150.747112
 21
133.048928
 31
0.0
100
AcDbText
  0
TEXT
  5
30F
100
AcDbEntity
  8
0
 62
     7
100
AcDbText
 10
143.247112
 20
117.923928
 30
0.0
 40
2.5
  1
1216
 41
0.7695
  7
FontTableH_0
 72
     5
 11
150.747112
 21
117.923928
 31
0.0
100
AcDbText
  0
TEXT
  5
310
100
AcDbEntity
  8
0
 62
     7
100
AcDbText
 10
143.247112
 20
114.898928
 30
0.0
 40
2.5
  1
1144
 41
0.7695
  7
FontTableH_0
 72
     5
 11
150.747112
 21
114.898928
 31
0.0
100
AcDbText
  0
TEXT
  5
311
100
AcDbEntity
  8
0
 62
     7
100
AcDbText
 10
143.247112
 20
111.873928
 30
0.0
 40
2.5
  1
1074
 41
0.7695
  7
FontTableH_0
 72
     5
 11
150.747112
 21
111.873928
 31
0.0
100
AcDbText
  0
TEXT
  5
312
100
AcDbEntity
  8
0
 62
     7
100
AcDbText
 10
143.247112
 20
108.848928
 30
0.0
 40
2.5
  1
1004
 41
0.7695
  7
FontTableH_0
 72
     5
 11
150.747112
 21
108.848928
 31
0.0
100
AcDbText
  0
TEXT
  5
313
100
AcDbEntity
  8
0
 62
     7
100
AcDbText
 10
143.247112
 20
90.698928
 30
0.0
 40
2.5
  1
1236
 41
0.7695
  7
FontTableH_0
 72
     5
 11
150.747112
 21
90.698928
 31
0.0
100
AcDbText
  0
TEXT
  5
314
100
AcDbEntity
  8
0
 62
     7
100
AcDbText
 10
143.247112
 20
87.673928
 30
0.0
 40
2.5
  1
1165
 41
0.7695
  7
FontTableH_0
 72
     5
 11
150.747112
 21
87.673928
 31
0.0
100
AcDbText
  0
TEXT
  5
315
100
AcDbEntity
  8
0
 62
     7
100
AcDbText
 10
143.247112
 20
84.648928
 30
0.0
 40
2.5
  1
1094
 41
0.7695
  7
FontTableH_0
 72
     5
 11
150.747112
 21
84.648928
 31
0.0
100
AcDbText
  0
TEXT
  5
316
100
AcDbEntity
  8
0
 62
     7
100
AcDbText
 10
143.247112
 20
81.623928
 30
0.0
 40
2.5
  1
1023
 41
0.7695
  7
FontTableH_0
 72
     5
 11
150.747112
 21
81.623928
 31
0.0
100
AcDbText
  0
TEXT
  5
317
100
AcDbEntity
  8
0
 62
     7
100
AcDbText
 10
172.647112
 20
96.748928
 30
0.0
 40
2.5
  1
97
 41
0.7695
  7
FontTableH_0
 72
     5
 11
176.397112
 21
96.748928
 31
0.0
100
AcDbText
  0
TEXT
  5
318
100
AcDbEntity
  8
0
 62
     7
100
AcDbText
 10
171.327112
 20
93.723928
 30
0.0
 40
2.5
  1
377
 41
0.7695
  7
FontTableH_0
 72
     5
 11
176.952112
 21
93.723928
 31
0.0
100
AcDbText
  0
TEXT
  5
319
100
AcDbEntity
  8
0
 62
     7
100
AcDbText
 10
172.647112
 20
72.548928
 30
0.0
 40
2.5
  1
97
 41
0.7695
  7
FontTableH_0
 72
     5
 11
176.397112
 21
72.548928
 31
0.0
100
AcDbText
  0
TEXT
  5
31A
100
AcDbEntity
  8
0
 62
     7
100
AcDbText
 10
172.647112
 20
69.523928
 30
0.0
 40
2.5
  1
61
 41
0.7695
  7
FontTableH_0
 72
     5
 11
176.397112
 21
69.523928
 31
0.0
100
AcDbText
  0
TEXT
  5
31B
100
AcDbEntity
  8
0
 62
     7
100
AcDbText
 10
228.575628
 20
127.463715
 30
0.0
 40
3.0
  1
φＡ
 50
90.0
 41
0.7695
  7
FontTableH_0
 72
     5
 11
228.575628
 21
133.463715
 31
0.0
100
AcDbText
  0
TEXT
  5
31C
100
AcDbEntity
  8
0
 62
     7
100
AcDbText
 10
258.975628
 20
99.113873
 30
0.0
 40
3.0
  1
Ｅ
 41
0.7695
  7
FontTableH_0
 72
     5
 11
261.975628
 21
99.113873
 31
0.0
100
AcDbText
  0
TEXT
  5
31D
100
AcDbEntity
  8
0
 62
     7
100
AcDbText
 10
322.375628
 20
99.113873
 30
0.0
 40
3.0
  1
Ｆ
 41
0.7695
  7
FontTableH_0
 72
     5
 11
325.375628
 21
99.113873
 31
0.0
100
AcDbText
  0
TEXT
  5
31E
100
AcDbEntity
  8
0
 62
     7
100
AcDbText
 10
299.975628
 20
89.113873
 30
0.0
 40
3.0
  1
Ｌ１
 41
0.7695
  7
FontTableH_0
 72
     5
 11
305.975628
 21
89.113873
 31
0.0
100
AcDbText
  0
TEXT
  5
31F
100
AcDbEntity
  8
0
 62
     7
100
AcDbText
 10
281.022075
 20
188.092908
 30
0.0
 40
3.0
  1
Ｌ２
 50
45.0
 41
0.7695
  7
FontTableH_0
 72
     5
 11
285.264716
 21
192.335549
 31
0.0
100
AcDbText
  0
TEXT
  5
320
100
AcDbEntity
  8
0
 62
     7
100
AcDbText
 10
313.725874
 20
202.765266
 30
0.0
 40
3.0
  1
ｌ２
 50
45.0
 41
0.7695
  7
FontTableH_0
 72
     5
 11
317.968514
 21
207.007907
 31
0.0
100
AcDbText
  0
TEXT
  5
321
100
AcDbEntity
  8
0
 62
     7
100
AcDbText
 10
353.375628
 20
163.063707
 30
0.0
 40
3.0
  1
ｌ１
 41
0.7695
  7
FontTableH_0
 72
     5
 11
359.375628
 21
163.063707
 31
0.0
100
AcDbText
  0
TEXT
  5
322
100
AcDbEntity
  8
0
 62
     7
100
AcDbText
 10
355.621836
 20
208.952562
 30
0.0
 40
3.0
  1
φＢ
 50
-45.0
 41
0.7695
  7
FontTableH_0
 72
     5
 11
359.864477
 21
204.709922
 31
0.0
100
AcDbText
  0
TEXT
  5
323
100
AcDbEntity
  8
0
 62
     7
100
AcDbText
 10
301.212773
 20
138.218121
 30
0.0
 40
3.0
  1
45ﾟ
 50
-74.713287
 41
0.7695
  7
FontTableH_0
 72
     5
 11
302.992406
 21
131.706945
 31
0.0
100
AcDbText
  0
TEXT
  5
324
100
AcDbEntity
  8
0
 62
     7
100
AcDbText
 10
312.166878
 20
116.226958
 30
0.0
 40
3.0
  1
Ｔ１
 50
90.0
 41
0.7695
  7
FontTableH_0
 72
     5
 11
312.166878
 21
122.226958
 31
0.0
100
AcDbText
  0
TEXT
  5
325
100
AcDbEntity
  8
0
 62
     7
100
AcDbText
 10
287.759405
 20
178.787884
 30
0.0
 40
3.0
  1
Ｔ２
 50
-45.0
 41
0.7695
  7
FontTableH_0
 72
     5
 11
292.002046
 21
174.545243
 31
0.0
100
AcDbText
  0
TEXT
  5
326
100
AcDbEntity
  8
0
 62
     7
100
AcDbText
 10
101.847112
 20
220.773927
 30
0.0
 40
2.5
  1
   ×125
 41
0.7695
  7
FontTableH_0
 72
     5
 11
111.847112
 21
220.773927
 31
0.0
100
AcDbText
  0
TEXT
  5
327
100
AcDbEntity
  8
0
 62
     7
100
AcDbText
 10
101.847112
 20
217.748927
 30
0.0
 40
2.5
  1
　 ×100
 41
0.7695
  7
FontTableH_0
 72
     5
 11
111.847112
 21
217.748927
 31
0.0
100
AcDbText
  0
TEXT
  5
328
100
AcDbEntity
  8
0
 62
     7
100
AcDbText
 10
101.847112
 20
214.723927
 30
0.0
 40
2.5
  1
200×200
 41
0.7695
  7
FontTableH_0
 72
     5
 11
111.847112
 21
214.723927
 31
0.0
100
AcDbText
  0
TEXT
  5
329
100
AcDbEntity
  8
0
 62
     7
100
AcDbText
 10
101.847112
 20
211.698927
 30
0.0
 40
2.5
  1
　 ×150
 41
0.7695
  7
FontTableH_0
 72
     5
 11
111.847112
 21
211.698927
 31
0.0
100
AcDbText
  0
TEXT
  5
32A
100
AcDbEntity
  8
0
 62
     7
100
AcDbText
 10
101.847112
 20
208.673927
 30
0.0
 40
2.5
  1
　 ×125
 41
0.7695
  7
FontTableH_0
 72
     5
 11
111.847112
 21
208.673927
 31
0.0
100
AcDbText
  0
TEXT
  5
32B
100
AcDbEntity
  8
0
 62
     7
100
AcDbText
 10
101.847112
 20
205.648927
 30
0.0
 40
2.5
  1
　 ×100
 41
0.7695
  7
FontTableH_0
 72
     5
 11
111.847112
 21
205.648927
 31
0.0
100
AcDbText
  0
TEXT
  5
32C
100
AcDbEntity
  8
0
 62
     7
100
AcDbText
 10
101.847112
 20
202.623927
 30
0.0
 40
2.5
  1
250×250
 41
0.7695
  7
FontTableH_0
 72
     5
 11
111.847112
 21
202.623927
 31
0.0
100
AcDbText
  0
TEXT
  5
32D
100
AcDbEntity
  8
0
 62
     7
100
AcDbText
 10
101.847112
 20
199.598927
 30
0.0
 40
2.5
  1
　 ×200
 41
0.7695
  7
FontTableH_0
 72
     5
 11
111.847112
 21
199.598927
 31
0.0
100
AcDbText
  0
TEXT
  5
32E
100
AcDbEntity
  8
0
 62
     7
100
AcDbText
 10
101.847112
 20
196.573927
 30
0.0
 40
2.5
  1
   ×150
 41
0.7695
  7
FontTableH_0
 72
     5
 11
111.847112
 21
196.573927
 31
0.0
100
AcDbText
  0
TEXT
  5
32F
100
AcDbEntity
  8
0
 62
     7
100
AcDbText
 10
101.847112
 20
193.548927
 30
0.0
 40
2.5
  1
   ×125
 41
0.7695
  7
FontTableH_0
 72
     5
 11
111.847112
 21
193.548927
 31
0.0
100
AcDbText
  0
TEXT
  5
330
100
AcDbEntity
  8
0
 62
     7
100
AcDbText
 10
101.847112
 20
190.523927
 30
0.0
 40
2.5
  1
300×300
 41
0.7695
  7
FontTableH_0
 72
     5
 11
111.847112
 21
190.523927
 31
0.0
100
AcDbText
  0
TEXT
  5
331
100
AcDbEntity
  8
0
 62
     7
100
AcDbText
 10
101.847112
 20
187.498927
 30
0.0
 40
2.5
  1
   ×250
 41
0.7695
  7
FontTableH_0
 72
     5
 11
111.847112
 21
187.498927
 31
0.0
100
AcDbText
  0
TEXT
  5
332
100
AcDbEntity
  8
0
 62
     7
100
AcDbText
 10
101.847112
 20
184.473927
 30
0.0
 40
2.5
  1
   ×200
 41
0.7695
  7
FontTableH_0
 72
     5
 11
111.847112
 21
184.473927
 31
0.0
100
AcDbText
  0
TEXT
  5
333
100
AcDbEntity
  8
0
 62
     7
100
AcDbText
 10
101.847112
 20
181.448927
 30
0.0
 40
2.5
  1
   ×150
 41
0.7695
  7
FontTableH_0
 72
     5
 11
111.847112
 21
181.448927
 31
0.0
100
AcDbText
  0
TEXT
  5
334
100
AcDbEntity
  8
0
 62
     7
100
AcDbText
 10
101.847112
 20
178.423927
 30
0.0
 40
2.5
  1
   ×125
 41
0.7695
  7
FontTableH_0
 72
     5
 11
111.847112
 21
178.423927
 31
0.0
100
AcDbText
  0
TEXT
  5
335
100
AcDbEntity
  8
0
 62
     7
100
AcDbText
 10
101.847112
 20
175.398927
 30
0.0
 40
2.5
  1
350×350
 41
0.7695
  7
FontTableH_0
 72
     5
 11
111.847112
 21
175.398927
 31
0.0
100
AcDbText
  0
TEXT
  5
336
100
AcDbEntity
  8
0
 62
     7
100
AcDbText
 10
101.847112
 20
172.373927
 30
0.0
 40
2.5
  1
   ×300
 41
0.7695
  7
FontTableH_0
 72
     5
 11
111.847112
 21
172.373927
 31
0.0
100
AcDbText
  0
TEXT
  5
337
100
AcDbEntity
  8
0
 62
     7
100
AcDbText
 10
101.847112
 20
169.348927
 30
0.0
 40
2.5
  1
   ×250
 41
0.7695
  7
FontTableH_0
 72
     5
 11
111.847112
 21
169.348927
 31
0.0
100
AcDbText
  0
TEXT
  5
338
100
AcDbEntity
  8
0
 62
     7
100
AcDbText
 10
101.847112
 20
166.323927
 30
0.0
 40
2.5
  1
   ×200
 41
0.7695
  7
FontTableH_0
 72
     5
 11
111.847112
 21
166.323927
 31
0.0
100
AcDbText
  0
TEXT
  5
339
100
AcDbEntity
  8
0
 62
     7
100
AcDbText
 10
101.847112
 20
163.298927
 30
0.0
 40
2.5
  1
   ×150
 41
0.7695
  7
FontTableH_0
 72
     5
 11
111.847112
 21
163.298927
 31
0.0
100
AcDbText
  0
TEXT
  5
33A
100
AcDbEntity
  8
0
 62
     7
100
AcDbText
 10
101.847112
 20
160.273927
 30
0.0
 40
2.5
  1
   ×125
 41
0.7695
  7
FontTableH_0
 72
     5
 11
111.847112
 21
160.273927
 31
0.0
100
AcDbText
  0
TEXT
  5
33B
100
AcDbEntity
  8
0
 62
     7
100
AcDbText
 10
101.847112
 20
157.248927
 30
0.0
 40
2.5
  1
400×400
 41
0.7695
  7
FontTableH_0
 72
     5
 11
111.847112
 21
157.248927
 31
0.0
100
AcDbText
  0
TEXT
  5
33C
100
AcDbEntity
  8
0
 62
     7
100
AcDbText
 10
101.847112
 20
154.223927
 30
0.0
 40
2.5
  1
   ×350
 41
0.7695
  7
FontTableH_0
 72
     5
 11
111.847112
 21
154.223927
 31
0.0
100
AcDbText
  0
TEXT
  5
33D
100
AcDbEntity
  8
0
 62
     7
100
AcDbText
 10
101.847112
 20
151.198927
 30
0.0
 40
2.5
  1
   ×300
 41
0.7695
  7
FontTableH_0
 72
     5
 11
111.847112
 21
151.198927
 31
0.0
100
AcDbText
  0
TEXT
  5
33E
100
AcDbEntity
  8
0
 62
     7
100
AcDbText
 10
101.847112
 20
148.173927
 30
0.0
 40
2.5
  1
   ×250
 41
0.7695
  7
FontTableH_0
 72
     5
 11
111.847112
 21
148.173927
 31
0.0
100
AcDbText
  0
TEXT
  5
33F
100
AcDbEntity
  8
0
 62
     7
100
AcDbText
 10
101.847112
 20
145.148927
 30
0.0
 40
2.5
  1
   ×200
 41
0.7695
  7
FontTableH_0
 72
     5
 11
111.847112
 21
145.148927
 31
0.0
100
AcDbText
  0
TEXT
  5
340
100
AcDbEntity
  8
0
 62
     7
100
AcDbText
 10
101.847112
 20
142.123927
 30
0.0
 40
2.5
  1
   ×150
 41
0.7695
  7
FontTableH_0
 72
     5
 11
111.847112
 21
142.123927
 31
0.0
100
AcDbText
  0
TEXT
  5
341
100
AcDbEntity
  8
0
 62
     7
100
AcDbText
 10
101.847112
 20
139.098927
 30
0.0
 40
2.5
  1
450×450
 41
0.7695
  7
FontTableH_0
 72
     5
 11
111.847112
 21
139.098927
 31
0.0
100
AcDbText
  0
TEXT
  5
342
100
AcDbEntity
  8
0
 62
     7
100
AcDbText
 10
101.847112
 20
136.073928
 30
0.0
 40
2.5
  1
   ×400
 41
0.7695
  7
FontTableH_0
 72
     5
 11
111.847112
 21
136.073928
 31
0.0
100
AcDbText
  0
TEXT
  5
343
100
AcDbEntity
  8
0
 62
     7
100
AcDbText
 10
101.847112
 20
133.048928
 30
0.0
 40
2.5
  1
   ×350
 41
0.7695
  7
FontTableH_0
 72
     5
 11
111.847112
 21
133.048928
 31
0.0
100
AcDbText
  0
TEXT
  5
344
100
AcDbEntity
  8
0
 62
     7
100
AcDbText
 10
101.847112
 20
130.023928
 30
0.0
 40
2.5
  1
   ×300
 41
0.7695
  7
FontTableH_0
 72
     5
 11
111.847112
 21
130.023928
 31
0.0
100
AcDbText
  0
TEXT
  5
345
100
AcDbEntity
  8
0
 62
     7
100
AcDbText
 10
101.847112
 20
126.998928
 30
0.0
 40
2.5
  1
   ×250
 41
0.7695
  7
FontTableH_0
 72
     5
 11
111.847112
 21
126.998928
 31
0.0
100
AcDbText
  0
TEXT
  5
346
100
AcDbEntity
  8
0
 62
     7
100
AcDbText
 10
101.847112
 20
123.973928
 30
0.0
 40
2.5
  1
   ×200
 41
0.7695
  7
FontTableH_0
 72
     5
 11
111.847112
 21
123.973928
 31
0.0
100
AcDbText
  0
TEXT
  5
347
100
AcDbEntity
  8
0
 62
     7
100
AcDbText
 10
101.847112
 20
120.948928
 30
0.0
 40
2.5
  1
   ×150
 41
0.7695
  7
FontTableH_0
 72
     5
 11
111.847112
 21
120.948928
 31
0.0
100
AcDbText
  0
TEXT
  5
348
100
AcDbEntity
  8
0
 62
     7
100
AcDbText
 10
101.847112
 20
117.923928
 30
0.0
 40
2.5
  1
500×500
 41
0.7695
  7
FontTableH_0
 72
     5
 11
111.847112
 21
117.923928
 31
0.0
100
AcDbText
  0
TEXT
  5
349
100
AcDbEntity
  8
0
 62
     7
100
AcDbText
 10
101.847112
 20
114.898928
 30
0.0
 40
2.5
  1
   ×450
 41
0.7695
  7
FontTableH_0
 72
     5
 11
111.847112
 21
114.898928
 31
0.0
100
AcDbText
  0
TEXT
  5
34A
100
AcDbEntity
  8
0
 62
     7
100
AcDbText
 10
101.847112
 20
111.873928
 30
0.0
 40
2.5
  1
   ×400
 41
0.7695
  7
FontTableH_0
 72
     5
 11
111.847112
 21
111.873928
 31
0.0
100
AcDbText
  0
TEXT
  5
34B
100
AcDbEntity
  8
0
 62
     7
100
AcDbText
 10
101.847112
 20
108.848928
 30
0.0
 40
2.5
  1
   ×350
 41
0.7695
  7
FontTableH_0
 72
     5
 11
111.847112
 21
108.848928
 31
0.0
100
AcDbText
  0
TEXT
  5
34C
100
AcDbEntity
  8
0
 62
     7
100
AcDbText
 10
101.847112
 20
105.823928
 30
0.0
 40
2.5
  1
   ×300
 41
0.7695
  7
FontTableH_0
 72
     5
 11
111.847112
 21
105.823928
 31
0.0
100
AcDbText
  0
TEXT
  5
34D
100
AcDbEntity
  8
0
 62
     7
100
AcDbText
 10
101.847112
 20
102.798928
 30
0.0
 40
2.5
  1
   ×250
 41
0.7695
  7
FontTableH_0
 72
     5
 11
111.847112
 21
102.798928
 31
0.0
100
AcDbText
  0
TEXT
  5
34E
100
AcDbEntity
  8
0
 62
     7
100
AcDbText
 10
101.847112
 20
99.773928
 30
0.0
 40
2.5
  1
   ×200
 41
0.7695
  7
FontTableH_0
 72
     5
 11
111.847112
 21
99.773928
 31
0.0
100
AcDbText
  0
TEXT
  5
34F
100
AcDbEntity
  8
0
 62
     7
100
AcDbText
 10
101.847112
 20
96.748928
 30
0.0
 40
2.5
  1
   ×150
 41
0.7695
  7
FontTableH_0
 72
     5
 11
111.847112
 21
96.748928
 31
0.0
100
AcDbText
  0
TEXT
  5
350
100
AcDbEntity
  8
0
 62
     7
100
AcDbText
 10
101.847112
 20
93.723928
 30
0.0
 40
2.5
  1
600×600
 41
0.7695
  7
FontTableH_0
 72
     5
 11
111.847112
 21
93.723928
 31
0.0
100
AcDbText
  0
TEXT
  5
351
100
AcDbEntity
  8
0
 62
     7
100
AcDbText
 10
101.847112
 20
90.698928
 30
0.0
 40
2.5
  1
   ×500
 41
0.7695
  7
FontTableH_0
 72
     5
 11
111.847112
 21
90.698928
 31
0.0
100
AcDbText
  0
TEXT
  5
352
100
AcDbEntity
  8
0
 62
     7
100
AcDbText
 10
101.847112
 20
87.673928
 30
0.0
 40
2.5
  1
   ×450
 41
0.7695
  7
FontTableH_0
 72
     5
 11
111.847112
 21
87.673928
 31
0.0
100
AcDbText
  0
TEXT
  5
353
100
AcDbEntity
  8
0
 62
     7
100
AcDbText
 10
101.847112
 20
84.648928
 30
0.0
 40
2.5
  1
   ×400
 41
0.7695
  7
FontTableH_0
 72
     5
 11
111.847112
 21
84.648928
 31
0.0
100
AcDbText
  0
TEXT
  5
354
100
AcDbEntity
  8
0
 62
     7
100
AcDbText
 10
101.847112
 20
81.623928
 30
0.0
 40
2.5
  1
   ×350
 41
0.7695
  7
FontTableH_0
 72
     5
 11
111.847112
 21
81.623928
 31
0.0
100
AcDbText
  0
TEXT
  5
355
100
AcDbEntity
  8
0
 62
     7
100
AcDbText
 10
101.847112
 20
78.598928
 30
0.0
 40
2.5
  1
   ×300
 41
0.7695
  7
FontTableH_0
 72
     5
 11
111.847112
 21
78.598928
 31
0.0
100
AcDbText
  0
TEXT
  5
356
100
AcDbEntity
  8
0
 62
     7
100
AcDbText
 10
101.847112
 20
75.573928
 30
0.0
 40
2.5
  1
   ×250
 41
0.7695
  7
FontTableH_0
 72
     5
 11
111.847112
 21
75.573928
 31
0.0
100
AcDbText
  0
TEXT
  5
357
100
AcDbEntity
  8
0
 62
     7
100
AcDbText
 10
101.847112
 20
72.548928
 30
0.0
 40
2.5
  1
   ×200
 41
0.7695
  7
FontTableH_0
 72
     5
 11
111.847112
 21
72.548928
 31
0.0
100
AcDbText
  0
TEXT
  5
358
100
AcDbEntity
  8
0
 62
     7
100
AcDbText
 10
101.847112
 20
69.523928
 30
0.0
 40
2.5
  1
   ×150
 41
0.7695
  7
FontTableH_0
 72
     5
 11
111.847112
 21
69.523928
 31
0.0
100
AcDbText
  0
TEXT
  5
359
100
AcDbEntity
  8
0
 62
     7
100
AcDbText
 10
101.847112
 20
223.798927
 30
0.0
 40
2.5
  1
150×150
 41
0.7695
  7
FontTableH_0
 72
     5
 11
111.847112
 21
223.798927
 31
0.0
100
AcDbText
  0
TEXT
  5
35A
100
AcDbEntity
  8
0
 62
     7
100
AcDbText
 10
144.747112
 20
217.748927
 30
0.0
 40
2.5
  1
561
 41
0.7695
  7
FontTableH_0
 72
     5
 11
150.372112
 21
217.748927
 31
0.0
100
AcDbText
  0
ENDSEC
  0
SECTION
  2
OBJECTS
  0
DICTIONARY
  5
19
100
AcDbDictionary
  3
ACAD_GROUP
350
1A
  3
ACAD_MLINESTYLE
350
1B
  3
DWGPROPS
350
35B
  0
DICTIONARY
  5
1A
102
{ACAD_REACTORS
330
19
102
}
100
AcDbDictionary
  0
DICTIONARY
  5
1B
102
{ACAD_REACTORS
330
19
102
}
100
AcDbDictionary
  3
STANDARD
350
1C
  0
MLINESTYLE
  5
1C
102
{ACAD_REACTORS
330
1B
102
}
100
AcDbMlineStyle
  2
Standard
 70
     0
  3

 62
     0
 51
90.0
 52
90.0
 71
     2
 49
0.5
 62
   256
  6
ByLayer
 49
-0.5
 62
   256
  6
ByLayer
  0
XRECORD
  5
35B
100
AcDbXrecord
  1
DWGPROPS COOKIE
  2

  3

  4

  6

  7

  0
ENDSEC
  0
EOF
