  0
SECTION
  2
HEADER
  9
$ACADVER
  1
AC1014
  9
$ACADMAINTVER
 70
     0
  9
$DWGCODEPAGE
  3
ANSI_932
  9
$INSBASE
 10
0.0
 20
0.0
 30
0.0
  9
$EXTMIN
 10
0.0
 20
0.0
 30
0.0
  9
$EXTMAX
 10
472.288962
 20
287.518529
 30
0.0
  9
$LIMMIN
 10
0.0
 20
0.0
  9
$LIMMAX
 10
472.288962
 20
287.518529
  9
$ORTHOMODE
 70
     0
  9
$REGENMODE
 70
     1
  9
$FILLMODE
 70
     1
  9
$QTEXTMODE
 70
     0
  9
$MIRRTEXT
 70
     1
  9
$DRAGMODE
 70
     2
  9
$LTSCALE
 40
1.0
  9
$OSMODE
 70
     0
  9
$ATTMODE
 70
     1
  9
$TEXTSIZE
 40
0.2
  9
$TRACEWID
 40
0.05
  9
$TEXTSTYLE
  7
Standard
  9
$CLAYER
  8
0
  9
$CELTYPE
  6
Continuous
  9
$CECOLOR
 62
   256
  9
$CELTSCALE
 40
1.0
  9
$DELOBJ
 70
     1
  9
$DISPSILH
 70
     0
  9
$DIMSCALE
 40
1.0
  9
$DIMASZ
 40
0.18
  9
$DIMEXO
 40
0.0625
  9
$DIMDLI
 40
0.38
  9
$DIMRND
 40
0.0
  9
$DIMDLE
 40
0.0
  9
$DIMEXE
 40
0.18
  9
$DIMTP
 40
0.0
  9
$DIMTM
 40
0.0
  9
$DIMTXT
 40
0.18
  9
$DIMCEN
 40
0.09
  9
$DIMTSZ
 40
0.0
  9
$DIMTOL
 70
     0
  9
$DIMLIM
 70
     0
  9
$DIMTIH
 70
     1
  9
$DIMTOH
 70
     1
  9
$DIMSE1
 70
     0
  9
$DIMSE2
 70
     0
  9
$DIMTAD
 70
     0
  9
$DIMZIN
 70
     0
  9
$DIMBLK
  1

  9
$DIMASO
 70
     1
  9
$DIMSHO
 70
     1
  9
$DIMPOST
  1

  9
$DIMAPOST
  1

  9
$DIMALT
 70
     0
  9
$DIMALTD
 70
     2
  9
$DIMALTF
 40
25.4
  9
$DIMLFAC
 40
1.0
  9
$DIMTOFL
 70
     0
  9
$DIMTVP
 40
0.0
  9
$DIMTIX
 70
     0
  9
$DIMSOXD
 70
     0
  9
$DIMSAH
 70
     0
  9
$DIMBLK1
  1

  9
$DIMBLK2
  1

  9
$DIMSTYLE
  2
Standard
  9
$DIMCLRD
 70
     0
  9
$DIMCLRE
 70
     0
  9
$DIMCLRT
 70
     0
  9
$DIMTFAC
 40
1.0
  9
$DIMGAP
 40
0.09
  9
$DIMJUST
 70
     0
  9
$DIMSD1
 70
     0
  9
$DIMSD2
 70
     0
  9
$DIMTOLJ
 70
     1
  9
$DIMTZIN
 70
     0
  9
$DIMALTZ
 70
     0
  9
$DIMALTTZ
 70
     0
  9
$DIMFIT
 70
     3
  9
$DIMUPT
 70
     0
  9
$DIMUNIT
 70
     2
  9
$DIMDEC
 70
     4
  9
$DIMTDEC
 70
     4
  9
$DIMALTU
 70
     2
  9
$DIMALTTD
 70
     2
  9
$DIMTXSTY
  7
Standard
  9
$DIMAUNIT
 70
     0
  9
$LUNITS
 70
     2
  9
$LUPREC
 70
     4
  9
$SKETCHINC
 40
0.1
  9
$FILLETRAD
 40
0.0
  9
$AUNITS
 70
     0
  9
$AUPREC
 70
     0
  9
$MENU
  1
acad
  9
$ELEVATION
 40
0.0
  9
$PELEVATION
 40
0.0
  9
$THICKNESS
 40
0.0
  9
$LIMCHECK
 70
     0
  9
$BLIPMODE
 70
     1
  9
$CHAMFERA
 40
0.0
  9
$CHAMFERB
 40
0.0
  9
$CHAMFERC
 40
0.0
  9
$CHAMFERD
 40
0.0
  9
$SKPOLY
 70
     0
  9
$TDCREATE
 40
0.000000000
  9
$TDUPDATE
 40
0.000000000
  9
$TDINDWG
 40
0.0000000000
  9
$TDUSRTIMER
 40
0.0000000000
  9
$USRTIMER
 70
     1
  9
$ANGBASE
 50
0.0
  9
$ANGDIR
 70
     0
  9
$PDMODE
 70
     0
  9
$PDSIZE
 40
0.0
  9
$PLINEWID
 40
0.0
  9
$COORDS
 70
     0
  9
$SPLFRAME
 70
     0
  9
$SPLINETYPE
 70
     6
  9
$SPLINESEGS
 70
     8
  9
$ATTDIA
 70
     0
  9
$ATTREQ
 70
     1
  9
$HANDLING
 70
     1
  9
$HANDSEED
  5
2CE
  9
$SURFTAB1
 70
     6
  9
$SURFTAB2
 70
     6
  9
$SURFTYPE
 70
     6
  9
$SURFU
 70
     6
  9
$SURFV
 70
     6
  9
$UCSNAME
  2

  9
$UCSORG
 10
0.0
 20
0.0
 30
0.0
  9
$UCSXDIR
 10
1.0
 20
0.0
 30
0.0
  9
$UCSYDIR
 10
0.0
 20
1.0
 30
0.0
  9
$PUCSNAME
  2

  9
$PUCSORG
 10
0.0
 20
0.0
 30
0.0
  9
$PUCSXDIR
 10
1.0
 20
0.0
 30
0.0
  9
$PUCSYDIR
 10
0.0
 20
1.0
 30
0.0
  9
$USERI1
 70
     0
  9
$USERI2
 70
     0
  9
$USERI3
 70
     0
  9
$USERI4
 70
     0
  9
$USERI5
 70
     0
  9
$USERR1
 40
0.0
  9
$USERR2
 40
0.0
  9
$USERR3
 40
0.0
  9
$USERR4
 40
0.0
  9
$USERR5
 40
0.0
  9
$WORLDVIEW
 70
     1
  9
$SHADEDGE
 70
     3
  9
$SHADEDIF
 70
    70
  9
$TILEMODE
 70
     1
  9
$MAXACTVP
 70
    16
  9
$PINSBASE
 10
0.0
 20
0.0
 30
0.0
  9
$PLIMCHECK
 70
     0
  9
$PEXTMIN
 10
1.000000E+20
 20
1.000000E+20
 30
1.000000E+20
  9
$PEXTMAX
 10
-1.000000E+20
 20
-1.000000E+20
 30
-1.000000E+20
  9
$PLIMMIN
 10
0.0
 20
0.0
  9
$PLIMMAX
 10
12.0
 20
9.0
  9
$UNITMODE
 70
     0
  9
$VISRETAIN
 70
     0
  9
$PLINEGEN
 70
     1
  9
$PSLTSCALE
 70
     0
  9
$TREEDEPTH
 70
  3020
  9
$PICKSTYLE
 70
     1
  9
$CMLSTYLE
  2
Standard
  9
$CMLJUST
 70
     0
  9
$CMLSCALE
 40
1.0
  9
$PROXYGRAPHICS
 70
     0
  9
$MEASUREMENT
 70
     0
  0
ENDSEC
  0
SECTION
  2
CLASSES
  0
CLASS
  1
LWPOLYLINE
  2
AcDbPolyline
  3
"AutoCAD"
 90
        0
280
     0
281
     1
  0
CLASS
  1
IMAGE
  2
AcDbRasterImage
  3
ISM
 90
      127
280
     0
281
     1
  0
CLASS
  1
OLE2FRAME
  2
AcDbOle2Frame
  3
""
 90
        0
280
     0
281
     1
  0
CLASS
  1
HATCH
  2
AcDbHatch
  3
"ACAD_SEDONA"
 90
        0
280
     0
281
     1
  0
CLASS
  1
DICTIONARYVAR
  2
AcDbDictionaryVar
  3
"AutoCAD"
 90
        0
280
     0
281
     0
  0
CLASS
  1
RASTERVARIABLES
  2
AcDbRasterVariables
  3
ISM
 90
        0
280
     0
281
     0
  0
CLASS
  1
IMAGEDEF
  2
AcDbRasterImageDef
  3
ISM
 90
        0
280
     0
281
     0
  0
CLASS
  1
IMAGEDEF_REACTOR
  2
AcDbRasterImageDefReactor
  3
ISM
 90
        1
280
     0
281
     0
  0
CLASS
  1
IDBUFFER
  2
AcDbIdBuffer
  3
"Acad"
 90
        0
280
     0
281
     0
  0
CLASS
  1
SPATIAL_FILTER
  2
AcDbSpatialFilter
  3
"Acad"
 90
        0
280
     0
281
     0
  0
CLASS
  1
XRECORD
  2
AcDbXrecord
  3
"<Built In>"
 90
        0
280
     0
281
     0
  0
CLASS
  1
SORTENTSTABLE
  2
AcDbSortentsTable
  3
"AutoCAD"
 90
        0
280
     0
281
     0
  0
CLASS
  1
LAYER_INDEX
  2
AcDbLayerIndex
  3
"Acad"
 90
        0
280
     0
281
     0
  0
CLASS
  1
SPATIAL_INDEX
  2
AcDbSpatialIndex
  3
"Acad"
 90
        0
280
     0
281
     0
  0
CLASS
  1
OBJECT_PTR
  2
CAseDLPNTableRecord
  3
"ASE-LPNTableRecord"
 90
        1
280
     0
281
     0
  0
CLASS
  1
LAYOUT
  2
AcDbLayout
  3
"AutoCAD 2000"
 90
        0
280
     0
281
     0
  0
CLASS
  1
PLOTSETTINGS
  2
AcDbPlotSettings
  3
"AutoCAD 2000"
 90
        0
280
     0
281
     0
  0
CLASS
  1
ACDBDICTIONARYWDFLT
  2
AcDbDictionaryWithDefault
  3
"AutoCAD 2000"
 90
        0
280
     0
281
     0
  0
CLASS
  1
ACDBPLACEHOLDER
  2
AcDbPlaceHolder
  3
"AutoCAD 2000"
 90
        0
280
     0
281
     0
  0
CLASS
  1
VBA_PROJECT
  2
AcDbVbaProject
  3
"acadvba"
 90
        0
280
     0
281
     0
  0
CLASS
  1
WIPEOUT
  2
AcDbWipeout
  3
WipeOut|AutoCAD Express Tool|expresstools@autodesk.com
 90
      127
280
     0
281
     1
  0
CLASS
  1
WIPEOUTVARIABLES
  2
AcDbWipeoutVariables
  3
WipeOut|AutoCAD Express Tool|expresstools@autodesk.com
 90
        0
280
     0
281
     0
  0
CLASS
  1
RTEXT
  2
RText
  3
RText|AutoCAD Express Tool|expresstools@autodesk.com
 90
        0
280
     0
281
     1
  0
CLASS
  1
ARCALIGNEDTEXT
  2
AcDbArcAlignedText
  3
ATEXT|AutoCAD Express Tool|expresstools@autodesk.com
 90
        0
280
     0
281
     1
  0
ENDSEC
  0
SECTION
  2
TABLES
  0
TABLE
  2
VPORT
  5
7
100
AcDbSymbolTable
 70
     1
  0
VPORT
  5
15
100
AcDbSymbolTableRecord
100
AcDbViewportTableRecord
  2
*ACTIVE
 70
     0
 10
0.0
 20
0.0
 11
1.0
 21
1.0
 12
236.144481
 22
143.759265
 13
0.0
 23
0.0
 14
10.0
 24
10.0
 15
10.0
 25
10.0
 16
0.0
 26
0.0
 36
1.0
 17
0.0
 27
0.0
 37
0.0
 40
287.518529
 41
1.642638
 42
50.0
 43
0.0
 44
0.0
 50
0.0
 51
0.0
 71
     0
 72
   100
 73
     1
 74
     1
 75
     0
 76
     0
 77
     0
 78
     0
  0
ENDTAB
  0
TABLE
  2
LTYPE
  5
4
100
AcDbSymbolTable
 70
    24
  0
LTYPE
  5
11
100
AcDbSymbolTableRecord
100
AcDbLinetypeTableRecord
  2
ByBlock
 70
    64
  3

 72
    65
 73
     0
 40
0.0
  0
LTYPE
  5
12
100
AcDbSymbolTableRecord
100
AcDbLinetypeTableRecord
  2
ByLayer
 70
    64
  3

 72
    65
 73
     0
 40
0.0
  0
LTYPE
  5
13
100
AcDbSymbolTableRecord
100
AcDbLinetypeTableRecord
  2
Continuous
 70
    64
  3
Solid line
 72
    65
 73
     0
 40
0.0
  0
LTYPE
  5
1D
100
AcDbSymbolTableRecord
100
AcDbLinetypeTableRecord
  2
DOT
 70
    64
  3
Dot . . . . . . . . . . . . . . . . . . . . . .
 72
    65
 73
     2
 40
6.35
 49
0.35
 74
     0
 49
-6.0
 74
     0
  0
LTYPE
  5
1E
100
AcDbSymbolTableRecord
100
AcDbLinetypeTableRecord
  2
DASHED
 70
    64
  3
Dashed __ __ __ __ __ __ __ __ __ __ __ __ __ _
 72
    65
 73
     2
 40
12.7
 49
6.35
 74
     0
 49
-6.35
 74
     0
  0
LTYPE
  5
1F
100
AcDbSymbolTableRecord
100
AcDbLinetypeTableRecord
  2
DASHDOT
 70
    64
  3
Dash dot __ . __ . __ . __ . __ . __ . __ . __
 72
    65
 73
     4
 40
25.4
 49
12.7
 74
     0
 49
-6.0
 74
     0
 49
0.7
 74
     0
 49
-6.0
 74
     0
  0
LTYPE
  5
20
100
AcDbSymbolTableRecord
100
AcDbLinetypeTableRecord
  2
DIVIDE
 70
    64
  3
Divide ____ . . ____ . . ____ . . ____ . . ____
 72
    65
 73
     6
 40
31.75
 49
12.7
 74
     0
 49
-6.0
 74
     0
 49
0.875
 74
     0
 49
-6.0
 74
     0
 49
0.875
 74
     0
 49
-6.0
 74
     0
  0
LTYPE
  5
21
100
AcDbSymbolTableRecord
100
AcDbLinetypeTableRecord
  2
HIDDEN
 70
    64
  3
Hidden __ __ __ __ __ __ __ __ __ __ __ __ __ _
 72
    65
 73
     2
 40
9.525
 49
6.35
 74
     0
 49
-3.175
 74
     0
  0
LTYPE
  5
22
100
AcDbSymbolTableRecord
100
AcDbLinetypeTableRecord
  2
CENTER
 70
    64
  3
Center ____ _ ____ _ ____ _ ____ _ ____ _ ____
 72
    65
 73
     4
 40
50.8
 49
31.75
 74
     0
 49
-6.35
 74
     0
 49
6.35
 74
     0
 49
-6.35
 74
     0
  0
LTYPE
  5
23
100
AcDbSymbolTableRecord
100
AcDbLinetypeTableRecord
  2
PHANTOM
 70
    64
  3
Phantom ______  __  __  ______  __  __  ______
 72
    65
 73
     6
 40
63.5
 49
31.75
 74
     0
 49
-6.35
 74
     0
 49
6.35
 74
     0
 49
-6.35
 74
     0
 49
6.35
 74
     0
 49
-6.35
 74
     0
  0
LTYPE
  5
24
100
AcDbSymbolTableRecord
100
AcDbLinetypeTableRecord
  2
ACAD_ISO02W100
 70
    64
  3
ISO dash __ __ __ __ __ __ __ __ __ __ __ __ __
 72
    65
 73
     2
 40
15.0
 49
12.0
 74
     0
 49
-3.0
 74
     0
  0
LTYPE
  5
25
100
AcDbSymbolTableRecord
100
AcDbLinetypeTableRecord
  2
ACAD_ISO03W100
 70
    64
  3
ISO dash space __ __ __ __ __ __ __ __ __ __ __ __ __ __
 72
    65
 73
     2
 40
30.0
 49
12.0
 74
     0
 49
-18.0
 74
     0
  0
LTYPE
  5
26
100
AcDbSymbolTableRecord
100
AcDbLinetypeTableRecord
  2
ACAD_ISO04W100
 70
    64
  3
ISO long-dash dot ____ . ____ . ____ . ____ . _
 72
    65
 73
     4
 40
30.0
 49
24.0
 74
     0
 49
-3.0
 74
     0
 49
0.0
 74
     0
 49
-3.0
 74
     0
  0
LTYPE
  5
27
100
AcDbSymbolTableRecord
100
AcDbLinetypeTableRecord
  2
ACAD_ISO05W100
 70
    64
  3
ISO long-dash double-dot ____ .. ____ .. ____ .
 72
    65
 73
     6
 40
33.0
 49
24.0
 74
     0
 49
-3.0
 74
     0
 49
0.0
 74
     0
 49
-3.0
 74
     0
 49
0.0
 74
     0
 49
-3.0
 74
     0
  0
LTYPE
  5
28
100
AcDbSymbolTableRecord
100
AcDbLinetypeTableRecord
  2
ACAD_ISO06W100
 70
    64
  3
ISO long-dash triple-dot ____ ... ____ ... ____
 72
    65
 73
     8
 40
36.0
 49
24.0
 74
     0
 49
-3.0
 74
     0
 49
0.0
 74
     0
 49
-3.0
 74
     0
 49
0.0
 74
     0
 49
-3.0
 74
     0
 49
0.0
 74
     0
 49
-3.0
 74
     0
  0
LTYPE
  5
29
100
AcDbSymbolTableRecord
100
AcDbLinetypeTableRecord
  2
ACAD_ISO07W100
 70
    64
  3
ISO dot . . . . . . . . . . . . . . . . . . . .
 72
    65
 73
     2
 40
3.0
 49
0.0
 74
     0
 49
-3.0
 74
     0
  0
LTYPE
  5
2A
100
AcDbSymbolTableRecord
100
AcDbLinetypeTableRecord
  2
ACAD_ISO08W100
 70
    64
  3
ISO long-dash short-dash ____ __ ____ __ ____ _
 72
    65
 73
     4
 40
36.0
 49
24.0
 74
     0
 49
-3.0
 74
     0
 49
6.0
 74
     0
 49
-3.0
 74
     0
  0
LTYPE
  5
2B
100
AcDbSymbolTableRecord
100
AcDbLinetypeTableRecord
  2
ACAD_ISO09W100
 70
    64
  3
ISO long-dash double-short-dash ____ __ __ ____
 72
    65
 73
     6
 40
45.0
 49
24.0
 74
     0
 49
-3.0
 74
     0
 49
6.0
 74
     0
 49
-3.0
 74
     0
 49
6.0
 74
     0
 49
-3.0
 74
     0
  0
LTYPE
  5
2C
100
AcDbSymbolTableRecord
100
AcDbLinetypeTableRecord
  2
ACAD_ISO10W100
 70
    64
  3
ISO dash dot __ . __ . __ . __ . __ . __ . __ .
 72
    65
 73
     4
 40
18.0
 49
12.0
 74
     0
 49
-3.0
 74
     0
 49
0.0
 74
     0
 49
-3.0
 74
     0
  0
LTYPE
  5
2D
100
AcDbSymbolTableRecord
100
AcDbLinetypeTableRecord
  2
ACAD_ISO11W100
 70
    64
  3
ISO double-dash dot __ __ . __ __ . __ __ . __ 
 72
    65
 73
     6
 40
33.0
 49
12.0
 74
     0
 49
-3.0
 74
     0
 49
12.0
 74
     0
 49
-3.0
 74
     0
 49
0.0
 74
     0
 49
-3.0
 74
     0
  0
LTYPE
  5
2E
100
AcDbSymbolTableRecord
100
AcDbLinetypeTableRecord
  2
ACAD_ISO12W100
 70
    64
  3
ISO dash double-dot __ . . __ . . __ . . __ . .
 72
    65
 73
     6
 40
21.0
 49
12.0
 74
     0
 49
-3.0
 74
     0
 49
0.0
 74
     0
 49
-3.0
 74
     0
 49
0.0
 74
     0
 49
-3.0
 74
     0
  0
LTYPE
  5
2F
100
AcDbSymbolTableRecord
100
AcDbLinetypeTableRecord
  2
ACAD_ISO13W100
 70
    64
  3
ISO double-dash double-dot __ __ . . __ __ . . 
 72
    65
 73
     8
 40
36.0
 49
12.0
 74
     0
 49
-3.0
 74
     0
 49
12.0
 74
     0
 49
-3.0
 74
     0
 49
0.0
 74
     0
 49
-3.0
 74
     0
 49
0.0
 74
     0
 49
-3.0
 74
     0
  0
LTYPE
  5
30
100
AcDbSymbolTableRecord
100
AcDbLinetypeTableRecord
  2
ACAD_ISO14W100
 70
    64
  3
ISO dash triple-dot __ . . . __ . . . __ . . . 
 72
    65
 73
     8
 40
24.0
 49
12.0
 74
     0
 49
-3.0
 74
     0
 49
0.0
 74
     0
 49
-3.0
 74
     0
 49
0.0
 74
     0
 49
-3.0
 74
     0
 49
0.0
 74
     0
 49
-3.0
 74
     0
  0
LTYPE
  5
31
100
AcDbSymbolTableRecord
100
AcDbLinetypeTableRecord
  2
ACAD_ISO15W100
 70
    64
  3
ISO double-dash double-dot __ __ . . __ __ . . 
 72
    65
 73
    10
 40
39.0
 49
12.0
 74
     0
 49
-3.0
 74
     0
 49
12.0
 74
     0
 49
-3.0
 74
     0
 49
0.0
 74
     0
 49
-3.0
 74
     0
 49
0.0
 74
     0
 49
-3.0
 74
     0
 49
0.0
 74
     0
 49
-3.0
 74
     0
  0
ENDTAB
  0
TABLE
  2
LAYER
  5
2
100
AcDbSymbolTable
 70
     1
  0
LAYER
  5
14
100
AcDbSymbolTableRecord
100
AcDbLayerTableRecord
  2
0
 70
     0
 62
     7
  6
Continuous
  0
ENDTAB
  0
TABLE
  2
STYLE
  5
3
100
AcDbSymbolTable
 70
     4
  0
STYLE
  5
17
100
AcDbSymbolTableRecord
100
AcDbTextStyleTableRecord
  2
Standard
 70
     0
 40
0.0
 41
1.0
 50
0.0
 71
     0
 42
0.0
  3
txt.shx
  4
bigfont.shx
  0
STYLE
  5
32
100
AcDbSymbolTableRecord
100
AcDbTextStyleTableRecord
  2
STANDARD_T
 70
     4
 40
0.0
 41
1.0
 50
0.0
 71
     0
 42
0.0
  3
txt.shx
  4
bigfont.shx
  0
STYLE
  5
33
100
AcDbSymbolTableRecord
100
AcDbTextStyleTableRecord
  2
FontTableH_0
 70
     0
 40
0.0
 41
1.0
 50
0.0
 71
     0
 42
0.0
  3
MS Gothic.ttf
  4

1001
ACAD
1000
MS Gothic
1071
    32817
  0
STYLE
  5
34
100
AcDbSymbolTableRecord
100
AcDbTextStyleTableRecord
  2
FontTableV_0
 70
     0
 40
0.0
 41
1.0
 50
0.0
 71
     0
 42
0.0
  3
@MS Gothic.ttf
  4

1001
ACAD
1000
@MS Gothic
1071
    32817
  0
ENDTAB
  0
TABLE
  2
VIEW
  5
5
100
AcDbSymbolTable
 70
     0
  0
ENDTAB
  0
TABLE
  2
UCS
  5
6
100
AcDbSymbolTable
 70
     0
  0
ENDTAB
  0
TABLE
  2
APPID
  5
8
100
AcDbSymbolTable
 70
     1
  0
APPID
  5
16
100
AcDbSymbolTableRecord
100
AcDbRegAppTableRecord
  2
ACAD
 70
     0
  0
ENDTAB
  0
TABLE
  2
DIMSTYLE
  5
9
100
AcDbSymbolTable
 70
     1
  0
DIMSTYLE
105
18
100
AcDbSymbolTableRecord
100
AcDbDimStyleTableRecord
  2
Standard
 70
     0
  3

  4

  5

  6

  7

 40
1.0
 41
0.18
 42
0.0625
 43
0.38
 44
0.18
 45
0.0
 46
0.0
 47
0.0
 48
0.0
 71
     0
 72
     0
 73
     1
 74
     1
 75
     0
 76
     0
 77
     0
 78
     0
140
0.18
141
0.09
142
0.0
143
25.4
144
1.0
145
0.0
146
1.0
147
0.09
170
     0
171
     2
172
     0
173
     0
174
     0
175
     0
176
     0
177
     0
178
     0
270
     2
271
     4
272
     4
273
     2
274
     2
275
     0
280
     0
281
     0
282
     0
283
     1
284
     0
285
     0
286
     0
287
     0
288
     0
340
17
  0
ENDTAB
  0
TABLE
  2
BLOCK_RECORD
  5
1
100
AcDbSymbolTable
 70
     0
  0
BLOCK_RECORD
  5
A
100
AcDbSymbolTableRecord
100
AcDbBlockTableRecord
  2
*MODEL_SPACE
  0
BLOCK_RECORD
  5
B
100
AcDbSymbolTableRecord
100
AcDbBlockTableRecord
  2
*PAPER_SPACE
  0
ENDTAB
  0
ENDSEC
  0
SECTION
  2
BLOCKS
  0
BLOCK
  5
D
100
AcDbEntity
  8
0
100
AcDbBlockBegin
  2
*MODEL_SPACE
 70
     0
 10
0.0
 20
0.0
 30
0.0
  3
*MODEL_SPACE
  1

  0
ENDBLK
  5
E
100
AcDbEntity
  8
0
100
AcDbBlockEnd
  0
BLOCK
  5
F
100
AcDbEntity
 67
     1
  8
0
100
AcDbBlockBegin
  2
*PAPER_SPACE
 70
     0
 10
0.0
 20
0.0
 30
0.0
  3
*PAPER_SPACE
  1

  0
ENDBLK
  5
10
100
AcDbEntity
 67
     1
  8
0
100
AcDbBlockEnd
  0
ENDSEC
  0
SECTION
  2
ENTITIES
  0
LINE
  5
35
100
AcDbEntity
  8
0
  6
Continuous
 62
     4
100
AcDbLine
 10
331.534678
 20
68.9507
 30
0.0
 11
331.534678
 21
48.910652
 31
0.0
  0
LINE
  5
36
100
AcDbEntity
  8
0
  6
Continuous
 62
     4
100
AcDbLine
 10
331.534678
 20
53.920664
 30
0.0
 11
374.477638
 21
53.920664
 31
0.0
  0
LINE
  5
37
100
AcDbEntity
  8
0
  6
Continuous
 62
     2
100
AcDbLine
 10
374.477638
 20
238.607877
 30
0.0
 11
374.477638
 21
48.910652
 31
0.0
  0
LINE
  5
38
100
AcDbEntity
  8
0
  6
Continuous
 62
     2
100
AcDbLine
 10
374.477638
 20
48.910652
 30
0.0
 11
97.811323
 21
48.910652
 31
0.0
  0
LINE
  5
39
100
AcDbEntity
  8
0
  6
Continuous
 62
     2
100
AcDbLine
 10
97.811323
 20
238.607877
 30
0.0
 11
97.811323
 21
48.910652
 31
0.0
  0
LINE
  5
3A
100
AcDbEntity
  8
0
  6
Continuous
 62
     2
100
AcDbLine
 10
374.477638
 20
238.607877
 30
0.0
 11
97.811323
 21
238.607877
 31
0.0
  0
LINE
  5
3B
100
AcDbEntity
  8
0
  6
Continuous
 62
     2
100
AcDbLine
 10
331.591858
 20
68.9507
 30
0.0
 11
374.477638
 21
68.9507
 31
0.0
  0
LINE
  5
3C
100
AcDbEntity
  8
0
  6
Continuous
 62
     4
100
AcDbLine
 10
331.591858
 20
58.930676
 30
0.0
 11
374.477638
 21
58.930676
 31
0.0
  0
LINE
  5
3D
100
AcDbEntity
  8
0
  6
Continuous
 62
     4
100
AcDbLine
 10
104.614117
 20
232.698167
 30
0.0
 11
223.414108
 21
232.698167
 31
0.0
  0
LINE
  5
3E
100
AcDbEntity
  8
0
  6
Continuous
 62
     4
100
AcDbLine
 10
104.614117
 20
232.698167
 30
0.0
 11
104.614117
 21
69.348168
 31
0.0
  0
LINE
  5
3F
100
AcDbEntity
  8
0
  6
Continuous
 62
     4
100
AcDbLine
 10
131.014117
 20
232.698167
 30
0.0
 11
131.014117
 21
69.348168
 31
0.0
  0
LINE
  5
40
100
AcDbEntity
  8
0
  6
Continuous
 62
     4
100
AcDbLine
 10
144.214117
 20
232.698167
 30
0.0
 11
144.214117
 21
69.348168
 31
0.0
  0
LINE
  5
41
100
AcDbEntity
  8
0
  6
Continuous
 62
     4
100
AcDbLine
 10
157.414117
 20
232.698167
 30
0.0
 11
157.414117
 21
69.348168
 31
0.0
  0
LINE
  5
42
100
AcDbEntity
  8
0
  6
Continuous
 62
     4
100
AcDbLine
 10
170.614117
 20
232.698167
 30
0.0
 11
170.614117
 21
69.348168
 31
0.0
  0
LINE
  5
43
100
AcDbEntity
  8
0
  6
Continuous
 62
     4
100
AcDbLine
 10
183.814117
 20
232.698167
 30
0.0
 11
183.814117
 21
69.348168
 31
0.0
  0
LINE
  5
44
100
AcDbEntity
  8
0
  6
Continuous
 62
     4
100
AcDbLine
 10
197.014108
 20
232.698167
 30
0.0
 11
197.014108
 21
69.348168
 31
0.0
  0
LINE
  5
45
100
AcDbEntity
  8
0
  6
Continuous
 62
     4
100
AcDbLine
 10
210.214108
 20
232.698167
 30
0.0
 11
210.214108
 21
69.348168
 31
0.0
  0
LINE
  5
46
100
AcDbEntity
  8
0
  6
Continuous
 62
     4
100
AcDbLine
 10
223.414108
 20
232.698167
 30
0.0
 11
223.414108
 21
69.348168
 31
0.0
  0
LINE
  5
47
100
AcDbEntity
  8
0
  6
Continuous
 62
     4
100
AcDbLine
 10
104.614117
 20
226.648167
 30
0.0
 11
223.414108
 21
226.648167
 31
0.0
  0
LINE
  5
48
100
AcDbEntity
  8
0
  6
Continuous
 62
     4
100
AcDbLine
 10
104.614117
 20
223.623167
 30
0.0
 11
223.414108
 21
223.623167
 31
0.0
  0
LINE
  5
49
100
AcDbEntity
  8
0
  6
Continuous
 62
     4
100
AcDbLine
 10
104.614117
 20
220.598167
 30
0.0
 11
223.414108
 21
220.598167
 31
0.0
  0
LINE
  5
4A
100
AcDbEntity
  8
0
  6
Continuous
 62
     4
100
AcDbLine
 10
104.614117
 20
217.573167
 30
0.0
 11
223.414108
 21
217.573167
 31
0.0
  0
LINE
  5
4B
100
AcDbEntity
  8
0
  6
Continuous
 62
     4
100
AcDbLine
 10
104.614117
 20
214.548167
 30
0.0
 11
223.414108
 21
214.548167
 31
0.0
  0
LINE
  5
4C
100
AcDbEntity
  8
0
  6
Continuous
 62
     4
100
AcDbLine
 10
104.614117
 20
211.523167
 30
0.0
 11
223.414108
 21
211.523167
 31
0.0
  0
LINE
  5
4D
100
AcDbEntity
  8
0
  6
Continuous
 62
     4
100
AcDbLine
 10
104.614117
 20
208.498167
 30
0.0
 11
223.414108
 21
208.498167
 31
0.0
  0
LINE
  5
4E
100
AcDbEntity
  8
0
  6
Continuous
 62
     4
100
AcDbLine
 10
104.614117
 20
205.473167
 30
0.0
 11
223.414108
 21
205.473167
 31
0.0
  0
LINE
  5
4F
100
AcDbEntity
  8
0
  6
Continuous
 62
     4
100
AcDbLine
 10
104.614117
 20
202.448167
 30
0.0
 11
223.414108
 21
202.448167
 31
0.0
  0
LINE
  5
50
100
AcDbEntity
  8
0
  6
Continuous
 62
     4
100
AcDbLine
 10
104.614117
 20
199.423167
 30
0.0
 11
223.414108
 21
199.423167
 31
0.0
  0
LINE
  5
51
100
AcDbEntity
  8
0
  6
Continuous
 62
     4
100
AcDbLine
 10
104.614117
 20
196.398167
 30
0.0
 11
223.414108
 21
196.398167
 31
0.0
  0
LINE
  5
52
100
AcDbEntity
  8
0
  6
Continuous
 62
     4
100
AcDbLine
 10
104.614117
 20
193.373167
 30
0.0
 11
223.414108
 21
193.373167
 31
0.0
  0
LINE
  5
53
100
AcDbEntity
  8
0
  6
Continuous
 62
     4
100
AcDbLine
 10
104.614117
 20
190.348167
 30
0.0
 11
223.414108
 21
190.348167
 31
0.0
  0
LINE
  5
54
100
AcDbEntity
  8
0
  6
Continuous
 62
     4
100
AcDbLine
 10
104.614117
 20
187.323167
 30
0.0
 11
223.414108
 21
187.323167
 31
0.0
  0
LINE
  5
55
100
AcDbEntity
  8
0
  6
Continuous
 62
     4
100
AcDbLine
 10
104.614117
 20
184.298167
 30
0.0
 11
223.414108
 21
184.298167
 31
0.0
  0
LINE
  5
56
100
AcDbEntity
  8
0
  6
Continuous
 62
     4
100
AcDbLine
 10
104.614117
 20
181.273167
 30
0.0
 11
223.414108
 21
181.273167
 31
0.0
  0
LINE
  5
57
100
AcDbEntity
  8
0
  6
Continuous
 62
     4
100
AcDbLine
 10
104.614117
 20
178.248167
 30
0.0
 11
223.414108
 21
178.248167
 31
0.0
  0
LINE
  5
58
100
AcDbEntity
  8
0
  6
Continuous
 62
     4
100
AcDbLine
 10
104.614117
 20
175.223167
 30
0.0
 11
223.414108
 21
175.223167
 31
0.0
  0
LINE
  5
59
100
AcDbEntity
  8
0
  6
Continuous
 62
     4
100
AcDbLine
 10
104.614117
 20
172.198167
 30
0.0
 11
223.414108
 21
172.198167
 31
0.0
  0
LINE
  5
5A
100
AcDbEntity
  8
0
  6
Continuous
 62
     4
100
AcDbLine
 10
104.614117
 20
169.173167
 30
0.0
 11
223.414108
 21
169.173167
 31
0.0
  0
LINE
  5
5B
100
AcDbEntity
  8
0
  6
Continuous
 62
     4
100
AcDbLine
 10
104.614117
 20
166.148167
 30
0.0
 11
223.414108
 21
166.148167
 31
0.0
  0
LINE
  5
5C
100
AcDbEntity
  8
0
  6
Continuous
 62
     4
100
AcDbLine
 10
104.614117
 20
163.123167
 30
0.0
 11
223.414108
 21
163.123167
 31
0.0
  0
LINE
  5
5D
100
AcDbEntity
  8
0
  6
Continuous
 62
     4
100
AcDbLine
 10
104.614117
 20
160.098167
 30
0.0
 11
223.414108
 21
160.098167
 31
0.0
  0
LINE
  5
5E
100
AcDbEntity
  8
0
  6
Continuous
 62
     4
100
AcDbLine
 10
104.614117
 20
157.073167
 30
0.0
 11
223.414108
 21
157.073167
 31
0.0
  0
LINE
  5
5F
100
AcDbEntity
  8
0
  6
Continuous
 62
     4
100
AcDbLine
 10
104.614117
 20
151.023167
 30
0.0
 11
223.414108
 21
151.023167
 31
0.0
  0
LINE
  5
60
100
AcDbEntity
  8
0
  6
Continuous
 62
     4
100
AcDbLine
 10
104.614117
 20
154.048167
 30
0.0
 11
223.414108
 21
154.048167
 31
0.0
  0
LINE
  5
61
100
AcDbEntity
  8
0
  6
Continuous
 62
     4
100
AcDbLine
 10
104.614117
 20
147.998167
 30
0.0
 11
223.414108
 21
147.998167
 31
0.0
  0
LINE
  5
62
100
AcDbEntity
  8
0
  6
Continuous
 62
     4
100
AcDbLine
 10
104.614117
 20
144.973167
 30
0.0
 11
223.414108
 21
144.973167
 31
0.0
  0
LINE
  5
63
100
AcDbEntity
  8
0
  6
Continuous
 62
     4
100
AcDbLine
 10
104.614117
 20
141.948167
 30
0.0
 11
223.414108
 21
141.948167
 31
0.0
  0
LINE
  5
64
100
AcDbEntity
  8
0
  6
Continuous
 62
     4
100
AcDbLine
 10
104.614117
 20
135.898168
 30
0.0
 11
223.414108
 21
135.898168
 31
0.0
  0
LINE
  5
65
100
AcDbEntity
  8
0
  6
Continuous
 62
     4
100
AcDbLine
 10
104.614117
 20
138.923167
 30
0.0
 11
223.414108
 21
138.923167
 31
0.0
  0
LINE
  5
66
100
AcDbEntity
  8
0
  6
Continuous
 62
     4
100
AcDbLine
 10
104.614117
 20
132.873168
 30
0.0
 11
223.414108
 21
132.873168
 31
0.0
  0
LINE
  5
67
100
AcDbEntity
  8
0
  6
Continuous
 62
     4
100
AcDbLine
 10
117.814117
 20
232.698167
 30
0.0
 11
117.814117
 21
69.348168
 31
0.0
  0
LINE
  5
68
100
AcDbEntity
  8
0
  6
Continuous
 62
     4
100
AcDbLine
 10
104.614117
 20
129.848168
 30
0.0
 11
223.414108
 21
129.848168
 31
0.0
  0
LINE
  5
69
100
AcDbEntity
  8
0
  6
Continuous
 62
     4
100
AcDbLine
 10
104.614117
 20
126.823168
 30
0.0
 11
223.414108
 21
126.823168
 31
0.0
  0
LINE
  5
6A
100
AcDbEntity
  8
0
  6
Continuous
 62
     4
100
AcDbLine
 10
104.614117
 20
123.798168
 30
0.0
 11
223.414108
 21
123.798168
 31
0.0
  0
LINE
  5
6B
100
AcDbEntity
  8
0
  6
Continuous
 62
     4
100
AcDbLine
 10
104.614117
 20
120.773168
 30
0.0
 11
223.414108
 21
120.773168
 31
0.0
  0
LINE
  5
6C
100
AcDbEntity
  8
0
  6
Continuous
 62
     4
100
AcDbLine
 10
104.614117
 20
117.748168
 30
0.0
 11
223.414108
 21
117.748168
 31
0.0
  0
LINE
  5
6D
100
AcDbEntity
  8
0
  6
Continuous
 62
     4
100
AcDbLine
 10
104.614117
 20
114.723168
 30
0.0
 11
223.414108
 21
114.723168
 31
0.0
  0
LINE
  5
6E
100
AcDbEntity
  8
0
  6
Continuous
 62
     4
100
AcDbLine
 10
104.614117
 20
111.698168
 30
0.0
 11
223.414108
 21
111.698168
 31
0.0
  0
LINE
  5
6F
100
AcDbEntity
  8
0
  6
Continuous
 62
     4
100
AcDbLine
 10
104.614117
 20
105.648168
 30
0.0
 11
223.414108
 21
105.648168
 31
0.0
  0
LINE
  5
70
100
AcDbEntity
  8
0
  6
Continuous
 62
     4
100
AcDbLine
 10
104.614117
 20
108.673168
 30
0.0
 11
223.414108
 21
108.673168
 31
0.0
  0
LINE
  5
71
100
AcDbEntity
  8
0
  6
Continuous
 62
     4
100
AcDbLine
 10
104.614117
 20
102.623168
 30
0.0
 11
223.414108
 21
102.623168
 31
0.0
  0
LINE
  5
72
100
AcDbEntity
  8
0
  6
Continuous
 62
     4
100
AcDbLine
 10
104.614117
 20
99.598168
 30
0.0
 11
223.414108
 21
99.598168
 31
0.0
  0
LINE
  5
73
100
AcDbEntity
  8
0
  6
Continuous
 62
     4
100
AcDbLine
 10
104.614117
 20
96.573168
 30
0.0
 11
223.414108
 21
96.573168
 31
0.0
  0
LINE
  5
74
100
AcDbEntity
  8
0
  6
Continuous
 62
     4
100
AcDbLine
 10
104.614117
 20
90.523168
 30
0.0
 11
223.414108
 21
90.523168
 31
0.0
  0
LINE
  5
75
100
AcDbEntity
  8
0
  6
Continuous
 62
     4
100
AcDbLine
 10
104.614117
 20
87.498168
 30
0.0
 11
223.414108
 21
87.498168
 31
0.0
  0
LINE
  5
76
100
AcDbEntity
  8
0
  6
Continuous
 62
     4
100
AcDbLine
 10
104.614117
 20
84.473168
 30
0.0
 11
223.414108
 21
84.473168
 31
0.0
  0
LINE
  5
77
100
AcDbEntity
  8
0
  6
Continuous
 62
     4
100
AcDbLine
 10
104.614117
 20
93.548168
 30
0.0
 11
223.414108
 21
93.548168
 31
0.0
  0
LINE
  5
78
100
AcDbEntity
  8
0
  6
Continuous
 62
     4
100
AcDbLine
 10
104.614117
 20
81.448168
 30
0.0
 11
223.414108
 21
81.448168
 31
0.0
  0
LINE
  5
79
100
AcDbEntity
  8
0
  6
Continuous
 62
     4
100
AcDbLine
 10
104.614117
 20
78.423168
 30
0.0
 11
223.414108
 21
78.423168
 31
0.0
  0
LINE
  5
7A
100
AcDbEntity
  8
0
  6
Continuous
 62
     4
100
AcDbLine
 10
104.614117
 20
75.398168
 30
0.0
 11
223.414108
 21
75.398168
 31
0.0
  0
LINE
  5
7B
100
AcDbEntity
  8
0
  6
Continuous
 62
     4
100
AcDbLine
 10
104.614117
 20
72.373168
 30
0.0
 11
223.414108
 21
72.373168
 31
0.0
  0
LINE
  5
7C
100
AcDbEntity
  8
0
  6
Continuous
 62
     4
100
AcDbLine
 10
104.614117
 20
69.348168
 30
0.0
 11
223.414108
 21
69.348168
 31
0.0
  0
LINE
  5
7D
100
AcDbEntity
  8
0
  6
Continuous
 62
     4
100
AcDbLine
 10
279.049598
 20
114.879054
 30
0.0
 11
279.570543
 21
111.924631
 31
0.0
  0
LINE
  5
7E
100
AcDbEntity
  8
0
  6
Continuous
 62
     4
100
AcDbLine
 10
279.049598
 20
114.879054
 30
0.0
 11
278.528654
 21
111.924631
 31
0.0
  0
LINE
  5
7F
100
AcDbEntity
  8
0
  6
Continuous
 62
     4
100
AcDbLine
 10
279.049598
 20
114.879054
 30
0.0
 11
279.049598
 21
104.294291
 31
0.0
  0
LINE
  5
80
100
AcDbEntity
  8
0
  6
Continuous
 62
     4
100
AcDbLine
 10
279.049598
 20
115.372929
 30
0.0
 11
278.528654
 21
118.327352
 31
0.0
  0
LINE
  5
81
100
AcDbEntity
  8
0
  6
Continuous
 62
     4
100
AcDbLine
 10
279.049598
 20
115.372929
 30
0.0
 11
279.570543
 21
118.327352
 31
0.0
  0
LINE
  5
82
100
AcDbEntity
  8
0
  6
Continuous
 62
     4
100
AcDbLine
 10
279.049598
 20
115.372929
 30
0.0
 11
279.049598
 21
127.795887
 31
0.0
  0
LINE
  5
83
100
AcDbEntity
  8
0
  6
Continuous
 62
     4
100
AcDbLine
 10
305.761518
 20
162.505197
 30
0.0
 11
302.807095
 21
161.984253
 31
0.0
  0
LINE
  5
84
100
AcDbEntity
  8
0
  6
Continuous
 62
     4
100
AcDbLine
 10
305.761518
 20
162.505197
 30
0.0
 11
302.807095
 21
163.026142
 31
0.0
  0
LINE
  5
85
100
AcDbEntity
  8
0
  6
Continuous
 62
     4
100
AcDbLine
 10
305.761518
 20
162.505197
 30
0.0
 11
297.474382
 21
162.505197
 31
0.0
  0
LINE
  5
86
100
AcDbEntity
  8
0
  6
Continuous
 62
     4
100
AcDbLine
 10
306.322068
 20
162.505197
 30
0.0
 11
309.276492
 21
163.026142
 31
0.0
  0
LINE
  5
87
100
AcDbEntity
  8
0
  6
Continuous
 62
     4
100
AcDbLine
 10
306.322068
 20
162.505197
 30
0.0
 11
309.276492
 21
161.984253
 31
0.0
  0
LINE
  5
88
100
AcDbEntity
  8
0
  6
Continuous
 62
     4
100
AcDbLine
 10
306.322068
 20
162.505197
 30
0.0
 11
318.665968
 21
162.505197
 31
0.0
  0
LINE
  5
89
100
AcDbEntity
  8
0
  6
Continuous
 62
     2
100
AcDbLine
 10
336.286168
 20
158.813557
 30
0.0
 11
336.286168
 21
114.113873
 31
0.0
  0
LINE
  5
8A
100
AcDbEntity
  8
0
  6
Continuous
 62
     2
100
AcDbLine
 10
243.286168
 20
158.813557
 30
0.0
 11
243.286168
 21
114.113873
 31
0.0
  0
LINE
  5
8B
100
AcDbEntity
  8
0
  6
Continuous
 62
     2
100
AcDbLine
 10
263.286168
 20
114.863716
 30
0.0
 11
316.286168
 21
114.863716
 31
0.0
  0
LINE
  5
8C
100
AcDbEntity
  8
0
  6
Continuous
 62
     2
100
AcDbLine
 10
272.530328
 20
188.063707
 30
0.0
 11
307.042018
 21
188.063707
 31
0.0
  0
LINE
  5
8D
100
AcDbEntity
  8
0
  6
Continuous
 62
     2
100
AcDbLine
 10
307.042018
 20
188.051067
 30
0.0
 11
306.549638
 21
168.356217
 31
0.0
  0
LINE
  5
8E
100
AcDbEntity
  8
0
  6
Continuous
 62
     2
100
AcDbLine
 10
272.530328
 20
188.051067
 30
0.0
 11
273.022698
 21
168.356217
 31
0.0
  0
LINE
  5
8F
100
AcDbEntity
  8
0
  6
Continuous
 62
     2
100
AcDbLine
 10
273.322608
 20
168.063707
 30
0.0
 11
306.249738
 21
168.063707
 31
0.0
  0
LINE
  5
90
100
AcDbEntity
  8
0
  6
Continuous
 62
     2
100
AcDbLine
 10
262.993668
 20
158.321177
 30
0.0
 11
243.298668
 21
158.813557
 31
0.0
  0
LINE
  5
91
100
AcDbEntity
  8
0
  6
Continuous
 62
     2
100
AcDbLine
 10
316.578678
 20
158.321177
 30
0.0
 11
336.273678
 21
158.813557
 31
0.0
  0
LINE
  5
92
100
AcDbEntity
  8
0
  6
Continuous
 62
     2
100
AcDbLine
 10
262.993668
 20
114.606248
 30
0.0
 11
243.298668
 21
114.113873
 31
0.0
  0
LINE
  5
93
100
AcDbEntity
  8
0
  6
Continuous
 62
     2
100
AcDbLine
 10
263.286168
 20
158.021277
 30
0.0
 11
263.286168
 21
114.906154
 31
0.0
  0
LINE
  5
94
100
AcDbEntity
  8
0
  6
Continuous
 62
     2
100
AcDbLine
 10
316.578678
 20
114.606248
 30
0.0
 11
336.273678
 21
114.113873
 31
0.0
  0
LINE
  5
95
100
AcDbEntity
  8
0
  6
Continuous
 62
     2
100
AcDbLine
 10
316.286168
 20
158.021277
 30
0.0
 11
316.286168
 21
114.906154
 31
0.0
  0
LINE
  5
96
100
AcDbEntity
  8
0
  6
Continuous
 62
     2
100
AcDbLine
 10
306.286168
 20
168.063707
 30
0.0
 11
306.286168
 21
158.063707
 31
0.0
  0
LINE
  5
97
100
AcDbEntity
  8
0
  6
Continuous
 62
     2
100
AcDbLine
 10
273.286168
 20
168.063707
 30
0.0
 11
273.286168
 21
158.063707
 31
0.0
  0
LINE
  5
98
100
AcDbEntity
  8
0
  6
Continuous
 62
     2
100
AcDbLine
 10
263.286168
 20
158.063707
 30
0.0
 11
273.286168
 21
158.063707
 31
0.0
  0
LINE
  5
99
100
AcDbEntity
  8
0
  6
Continuous
 62
     2
100
AcDbLine
 10
306.286168
 20
158.063707
 30
0.0
 11
316.286168
 21
158.063707
 31
0.0
  0
LINE
  5
9A
100
AcDbEntity
  8
0
  6
DASHDOT
 62
     4
100
AcDbLine
 10
289.786168
 20
196.527887
 30
0.0
 11
289.786168
 21
104.785191
 31
0.0
  0
LINE
  5
9B
100
AcDbEntity
  8
0
  6
DASHDOT
 62
     4
100
AcDbLine
 10
235.552718
 20
136.463716
 30
0.0
 11
344.712888
 21
136.463716
 31
0.0
  0
LINE
  5
9C
100
AcDbEntity
  8
0
  6
Continuous
 62
     4
100
AcDbLine
 10
263.286168
 20
89.452911
 30
0.0
 11
263.286168
 21
112.906154
 31
0.0
  0
LINE
  5
9D
100
AcDbEntity
  8
0
  6
Continuous
 62
     4
100
AcDbLine
 10
316.286168
 20
89.452911
 30
0.0
 11
316.286168
 21
112.906154
 31
0.0
  0
LINE
  5
9E
100
AcDbEntity
  8
0
  6
Continuous
 62
     4
100
AcDbLine
 10
336.286168
 20
79.452911
 30
0.0
 11
336.286168
 21
112.113873
 31
0.0
  0
LINE
  5
9F
100
AcDbEntity
  8
0
  6
Continuous
 62
     4
100
AcDbLine
 10
243.286168
 20
79.452911
 30
0.0
 11
243.286168
 21
112.113873
 31
0.0
  0
LINE
  5
A0
100
AcDbEntity
  8
0
  6
Continuous
 62
     4
100
AcDbLine
 10
273.322608
 20
170.063707
 30
0.0
 11
273.322608
 21
208.723217
 31
0.0
  0
LINE
  5
A1
100
AcDbEntity
  8
0
  6
Continuous
 62
     4
100
AcDbLine
 10
263.286168
 20
160.021277
 30
0.0
 11
263.286168
 21
208.723217
 31
0.0
  0
LINE
  5
A2
100
AcDbEntity
  8
0
  6
Continuous
 62
     4
100
AcDbLine
 10
306.249738
 20
170.063707
 30
0.0
 11
306.249738
 21
208.723217
 31
0.0
  0
LINE
  5
A3
100
AcDbEntity
  8
0
  6
Continuous
 62
     4
100
AcDbLine
 10
318.286168
 20
158.021277
 30
0.0
 11
351.375298
 21
158.021277
 31
0.0
  0
LINE
  5
A4
100
AcDbEntity
  8
0
  6
Continuous
 62
     4
100
AcDbLine
 10
308.249738
 20
168.063707
 30
0.0
 11
351.375298
 21
168.063707
 31
0.0
  0
LINE
  5
A5
100
AcDbEntity
  8
0
  6
Continuous
 62
     4
100
AcDbLine
 10
318.286168
 20
114.906154
 30
0.0
 11
351.375298
 21
114.906154
 31
0.0
  0
LINE
  5
A6
100
AcDbEntity
  8
0
  6
Continuous
 62
     4
100
AcDbLine
 10
346.712888
 20
136.463716
 30
0.0
 11
364.203578
 21
136.463716
 31
0.0
  0
LINE
  5
A7
100
AcDbEntity
  8
0
  6
Continuous
 62
     4
100
AcDbLine
 10
309.042018
 20
188.063707
 30
0.0
 11
364.203578
 21
188.063707
 31
0.0
  0
LINE
  5
A8
100
AcDbEntity
  8
0
  6
Continuous
 62
     2
100
AcDbLine
 10
316.591168
 20
157.821337
 30
0.0
 11
336.286168
 21
158.313707
 31
0.0
  0
LINE
  5
A9
100
AcDbEntity
  8
0
  6
Continuous
 62
     2
100
AcDbLine
 10
316.591168
 20
115.106091
 30
0.0
 11
336.286168
 21
114.613716
 31
0.0
  0
LINE
  5
AA
100
AcDbEntity
  8
0
  6
Continuous
 62
     2
100
AcDbLine
 10
263.286168
 20
115.363716
 30
0.0
 11
316.286168
 21
115.363716
 31
0.0
  0
LINE
  5
AB
100
AcDbEntity
  8
0
  6
Continuous
 62
     2
100
AcDbLine
 10
305.786168
 20
168.063707
 30
0.0
 11
305.786168
 21
158.063707
 31
0.0
  0
LINE
  5
AC
100
AcDbEntity
  8
0
  6
Continuous
 62
     2
100
AcDbLine
 10
273.030178
 20
188.063557
 30
0.0
 11
273.522548
 21
168.368707
 31
0.0
  0
LINE
  5
AD
100
AcDbEntity
  8
0
  6
Continuous
 62
     2
100
AcDbLine
 10
306.542168
 20
188.063557
 30
0.0
 11
306.049798
 21
168.368707
 31
0.0
  0
LINE
  5
AE
100
AcDbEntity
  8
0
  6
Continuous
 62
     4
100
AcDbLine
 10
273.322608
 20
207.723217
 30
0.0
 11
270.368185
 21
207.202273
 31
0.0
  0
LINE
  5
AF
100
AcDbEntity
  8
0
  6
Continuous
 62
     4
100
AcDbLine
 10
273.322608
 20
207.723217
 30
0.0
 11
270.368185
 21
208.244162
 31
0.0
  0
LINE
  5
B0
100
AcDbEntity
  8
0
  6
Continuous
 62
     4
100
AcDbLine
 10
263.286173
 20
207.723217
 30
0.0
 11
266.240596
 21
208.244162
 31
0.0
  0
LINE
  5
B1
100
AcDbEntity
  8
0
  6
Continuous
 62
     4
100
AcDbLine
 10
263.286173
 20
207.723217
 30
0.0
 11
266.240596
 21
207.202273
 31
0.0
  0
LINE
  5
B2
100
AcDbEntity
  8
0
  6
Continuous
 62
     4
100
AcDbLine
 10
263.286173
 20
207.723217
 30
0.0
 11
273.322608
 21
207.723217
 31
0.0
  0
LINE
  5
B3
100
AcDbEntity
  8
0
  6
Continuous
 62
     4
100
AcDbLine
 10
350.375298
 20
158.021277
 30
0.0
 11
349.854354
 21
160.9757
 31
0.0
  0
LINE
  5
B4
100
AcDbEntity
  8
0
  6
Continuous
 62
     4
100
AcDbLine
 10
350.375298
 20
158.021277
 30
0.0
 11
350.896243
 21
160.9757
 31
0.0
  0
LINE
  5
B5
100
AcDbEntity
  8
0
  6
Continuous
 62
     4
100
AcDbLine
 10
350.375298
 20
168.063714
 30
0.0
 11
350.896243
 21
165.109291
 31
0.0
  0
LINE
  5
B6
100
AcDbEntity
  8
0
  6
Continuous
 62
     4
100
AcDbLine
 10
350.375298
 20
168.063714
 30
0.0
 11
349.854354
 21
165.109291
 31
0.0
  0
LINE
  5
B7
100
AcDbEntity
  8
0
  6
Continuous
 62
     4
100
AcDbLine
 10
350.375298
 20
168.063714
 30
0.0
 11
350.375298
 21
158.021277
 31
0.0
  0
LINE
  5
B8
100
AcDbEntity
  8
0
  6
Continuous
 62
     4
100
AcDbLine
 10
306.249738
 20
207.723217
 30
0.0
 11
303.295315
 21
207.202273
 31
0.0
  0
LINE
  5
B9
100
AcDbEntity
  8
0
  6
Continuous
 62
     4
100
AcDbLine
 10
306.249738
 20
207.723217
 30
0.0
 11
303.295315
 21
208.244162
 31
0.0
  0
LINE
  5
BA
100
AcDbEntity
  8
0
  6
Continuous
 62
     4
100
AcDbLine
 10
273.32261
 20
207.723217
 30
0.0
 11
276.277033
 21
208.244162
 31
0.0
  0
LINE
  5
BB
100
AcDbEntity
  8
0
  6
Continuous
 62
     4
100
AcDbLine
 10
273.32261
 20
207.723217
 30
0.0
 11
276.277033
 21
207.202273
 31
0.0
  0
LINE
  5
BC
100
AcDbEntity
  8
0
  6
Continuous
 62
     4
100
AcDbLine
 10
273.32261
 20
207.723217
 30
0.0
 11
306.249738
 21
207.723217
 31
0.0
  0
LINE
  5
BD
100
AcDbEntity
  8
0
  6
Continuous
 62
     4
100
AcDbLine
 10
350.375298
 20
168.063707
 30
0.0
 11
349.854354
 21
171.01813
 31
0.0
  0
LINE
  5
BE
100
AcDbEntity
  8
0
  6
Continuous
 62
     4
100
AcDbLine
 10
350.375298
 20
168.063707
 30
0.0
 11
350.896243
 21
171.01813
 31
0.0
  0
LINE
  5
BF
100
AcDbEntity
  8
0
  6
Continuous
 62
     4
100
AcDbLine
 10
350.375298
 20
188.063707
 30
0.0
 11
350.896243
 21
185.109283
 31
0.0
  0
LINE
  5
C0
100
AcDbEntity
  8
0
  6
Continuous
 62
     4
100
AcDbLine
 10
350.375298
 20
188.063707
 30
0.0
 11
349.854354
 21
185.109283
 31
0.0
  0
LINE
  5
C1
100
AcDbEntity
  8
0
  6
Continuous
 62
     4
100
AcDbLine
 10
350.375298
 20
188.063707
 30
0.0
 11
350.375298
 21
168.063707
 31
0.0
  0
LINE
  5
C2
100
AcDbEntity
  8
0
  6
Continuous
 62
     4
100
AcDbLine
 10
336.286168
 20
90.452911
 30
0.0
 11
333.331745
 21
89.931967
 31
0.0
  0
LINE
  5
C3
100
AcDbEntity
  8
0
  6
Continuous
 62
     4
100
AcDbLine
 10
336.286168
 20
90.452911
 30
0.0
 11
333.331745
 21
90.973856
 31
0.0
  0
LINE
  5
C4
100
AcDbEntity
  8
0
  6
Continuous
 62
     4
100
AcDbLine
 10
316.286168
 20
90.452911
 30
0.0
 11
319.240592
 21
90.973856
 31
0.0
  0
LINE
  5
C5
100
AcDbEntity
  8
0
  6
Continuous
 62
     4
100
AcDbLine
 10
316.286168
 20
90.452911
 30
0.0
 11
319.240592
 21
89.931967
 31
0.0
  0
LINE
  5
C6
100
AcDbEntity
  8
0
  6
Continuous
 62
     4
100
AcDbLine
 10
316.286168
 20
90.452911
 30
0.0
 11
336.286168
 21
90.452911
 31
0.0
  0
LINE
  5
C7
100
AcDbEntity
  8
0
  6
Continuous
 62
     4
100
AcDbLine
 10
263.286168
 20
90.452911
 30
0.0
 11
260.331745
 21
89.931967
 31
0.0
  0
LINE
  5
C8
100
AcDbEntity
  8
0
  6
Continuous
 62
     4
100
AcDbLine
 10
263.286168
 20
90.452911
 30
0.0
 11
260.331745
 21
90.973856
 31
0.0
  0
LINE
  5
C9
100
AcDbEntity
  8
0
  6
Continuous
 62
     4
100
AcDbLine
 10
243.286168
 20
90.452911
 30
0.0
 11
246.240592
 21
90.973856
 31
0.0
  0
LINE
  5
CA
100
AcDbEntity
  8
0
  6
Continuous
 62
     4
100
AcDbLine
 10
243.286168
 20
90.452911
 30
0.0
 11
246.240592
 21
89.931967
 31
0.0
  0
LINE
  5
CB
100
AcDbEntity
  8
0
  6
Continuous
 62
     4
100
AcDbLine
 10
243.286168
 20
90.452911
 30
0.0
 11
263.286168
 21
90.452911
 31
0.0
  0
LINE
  5
CC
100
AcDbEntity
  8
0
  6
Continuous
 62
     4
100
AcDbLine
 10
336.286168
 20
80.452911
 30
0.0
 11
333.331745
 21
79.931967
 31
0.0
  0
LINE
  5
CD
100
AcDbEntity
  8
0
  6
Continuous
 62
     4
100
AcDbLine
 10
336.286168
 20
80.452911
 30
0.0
 11
333.331745
 21
80.973856
 31
0.0
  0
LINE
  5
CE
100
AcDbEntity
  8
0
  6
Continuous
 62
     4
100
AcDbLine
 10
243.286168
 20
80.452911
 30
0.0
 11
246.240592
 21
80.973856
 31
0.0
  0
LINE
  5
CF
100
AcDbEntity
  8
0
  6
Continuous
 62
     4
100
AcDbLine
 10
243.286168
 20
80.452911
 30
0.0
 11
246.240592
 21
79.931967
 31
0.0
  0
LINE
  5
D0
100
AcDbEntity
  8
0
  6
Continuous
 62
     4
100
AcDbLine
 10
243.286168
 20
80.452911
 30
0.0
 11
336.286168
 21
80.452911
 31
0.0
  0
LINE
  5
D1
100
AcDbEntity
  8
0
  6
Continuous
 62
     4
100
AcDbLine
 10
350.375298
 20
114.906154
 30
0.0
 11
349.854354
 21
117.860577
 31
0.0
  0
LINE
  5
D2
100
AcDbEntity
  8
0
  6
Continuous
 62
     4
100
AcDbLine
 10
350.375298
 20
114.906154
 30
0.0
 11
350.896243
 21
117.860577
 31
0.0
  0
LINE
  5
D3
100
AcDbEntity
  8
0
  6
Continuous
 62
     4
100
AcDbLine
 10
350.375298
 20
158.021278
 30
0.0
 11
350.896243
 21
155.066855
 31
0.0
  0
LINE
  5
D4
100
AcDbEntity
  8
0
  6
Continuous
 62
     4
100
AcDbLine
 10
350.375298
 20
158.021278
 30
0.0
 11
349.854354
 21
155.066855
 31
0.0
  0
LINE
  5
D5
100
AcDbEntity
  8
0
  6
Continuous
 62
     4
100
AcDbLine
 10
350.375298
 20
158.021278
 30
0.0
 11
350.375298
 21
114.906154
 31
0.0
  0
LINE
  5
D6
100
AcDbEntity
  8
0
  6
Continuous
 62
     4
100
AcDbLine
 10
363.203578
 20
136.463716
 30
0.0
 11
362.682634
 21
139.418139
 31
0.0
  0
LINE
  5
D7
100
AcDbEntity
  8
0
  6
Continuous
 62
     4
100
AcDbLine
 10
363.203578
 20
136.463716
 30
0.0
 11
363.724523
 21
139.418139
 31
0.0
  0
LINE
  5
D8
100
AcDbEntity
  8
0
  6
Continuous
 62
     4
100
AcDbLine
 10
363.203578
 20
188.063716
 30
0.0
 11
363.724523
 21
185.109292
 31
0.0
  0
LINE
  5
D9
100
AcDbEntity
  8
0
  6
Continuous
 62
     4
100
AcDbLine
 10
363.203578
 20
188.063716
 30
0.0
 11
362.682634
 21
185.109292
 31
0.0
  0
LINE
  5
DA
100
AcDbEntity
  8
0
  6
Continuous
 62
     4
100
AcDbLine
 10
363.203578
 20
188.063716
 30
0.0
 11
363.203578
 21
136.463716
 31
0.0
  0
ARC
  5
DB
100
AcDbEntity
  8
0
  6
Continuous
 62
     2
100
AcDbCircle
 10
306.249738
 20
168.363707
 30
0.0
 40
0.3
100
AcDbArc
 50
270.0
 51
358.5679
  0
ARC
  5
DC
100
AcDbEntity
  8
0
  6
Continuous
 62
     2
100
AcDbCircle
 10
273.322608
 20
168.363707
 30
0.0
 40
0.3
100
AcDbArc
 50
181.43209
 51
270.0
  0
ARC
  5
DD
100
AcDbEntity
  8
0
  6
Continuous
 62
     2
100
AcDbCircle
 10
262.986168
 20
158.021277
 30
0.0
 40
0.3
100
AcDbArc
 50
0.0
 51
88.567903
  0
ARC
  5
DE
100
AcDbEntity
  8
0
  6
Continuous
 62
     2
100
AcDbCircle
 10
316.586168
 20
158.021277
 30
0.0
 40
0.3
100
AcDbArc
 50
91.432096
 51
180.0
  0
ARC
  5
DF
100
AcDbEntity
  8
0
  6
Continuous
 62
     2
100
AcDbCircle
 10
262.986168
 20
114.906154
 30
0.0
 40
0.3
100
AcDbArc
 50
271.43209
 51
0.0
  0
ARC
  5
E0
100
AcDbEntity
  8
0
  6
Continuous
 62
     2
100
AcDbCircle
 10
316.586168
 20
114.906154
 30
0.0
 40
0.3
100
AcDbArc
 50
180.0
 51
268.5679
  0
ELLIPSE
  5
E1
100
AcDbEntity
  8
0
  6
Continuous
 62
     2
100
AcDbEllipse
 10
289.786168
 20
158.063707
 30
0.0
 11
16.5
 21
0.0
 31
0.0
210
0.0
220
0.0
230
1.0
 40
0.606061
 41
3.1415926535897931
 42
0.0
  0
TEXT
  5
E2
100
AcDbEntity
  8
0
 62
     7
100
AcDbText
 10
332.329348
 20
61.836713
 30
0.0
 40
4.0
  1
東都積水株式会社
 41
0.7695
  7
FontTableH_0
 72
     5
 11
364.329348
 21
61.836713
 31
0.0
100
AcDbText
  0
TEXT
  5
E3
100
AcDbEntity
  8
0
 62
     7
100
AcDbText
 10
333.512538
 20
54.858429
 30
0.0
 40
3.0
  1
スリーブタイプ
 41
0.7695
  7
FontTableH_0
 72
     5
 11
354.512538
 21
54.858429
 31
0.0
100
AcDbText
  0
TEXT
  5
E4
100
AcDbEntity
  8
0
 62
     7
100
AcDbText
 10
333.534168
 20
49.779819
 30
0.0
 40
3.0
  1
チーズ
 41
0.7695
  7
FontTableH_0
 72
     5
 11
342.534168
 21
49.779819
 31
0.0
100
AcDbText
  0
TEXT
  5
E5
100
AcDbEntity
  8
0
 62
     7
100
AcDbText
 10
173.671806
 20
227.610117
 30
0.0
 40
3.0
  1
ｌ１
 41
0.7695
  7
FontTableH_0
 72
     5
 11
179.671806
 21
227.610117
 31
0.0
100
AcDbText
  0
TEXT
  5
E6
100
AcDbEntity
  8
0
 62
     7
100
AcDbText
 10
186.871806
 20
227.610117
 30
0.0
 40
3.0
  1
ｌ２
 41
0.7695
  7
FontTableH_0
 72
     5
 11
192.871806
 21
227.610117
 31
0.0
100
AcDbText
  0
TEXT
  5
E7
100
AcDbEntity
  8
0
 62
     7
100
AcDbText
 10
200.071798
 20
227.610117
 30
0.0
 40
3.0
  1
Ｔ１
 41
0.7695
  7
FontTableH_0
 72
     5
 11
206.071798
 21
227.610117
 31
0.0
100
AcDbText
  0
TEXT
  5
E8
100
AcDbEntity
  8
0
 62
     7
100
AcDbText
 10
213.271798
 20
227.610117
 30
0.0
 40
3.0
  1
Ｔ２
 41
0.7695
  7
FontTableH_0
 72
     5
 11
219.271798
 21
227.610117
 31
0.0
100
AcDbText
  0
TEXT
  5
E9
100
AcDbEntity
  8
0
 62
     7
100
AcDbText
 10
148.591806
 20
227.610117
 30
0.0
 40
3.0
  1
Ｌ
 41
0.7695
  7
FontTableH_0
 72
     5
 11
151.591806
 21
227.610117
 31
0.0
100
AcDbText
  0
TEXT
  5
EA
100
AcDbEntity
  8
0
 62
     7
100
AcDbText
 10
161.791806
 20
227.610117
 30
0.0
 40
3.0
  1
Ｈ
 41
0.7695
  7
FontTableH_0
 72
     5
 11
164.791806
 21
227.610117
 31
0.0
100
AcDbText
  0
TEXT
  5
EB
100
AcDbEntity
  8
0
 62
     7
100
AcDbText
 10
107.271298
 20
227.762057
 30
0.0
 40
3.0
  1
呼称
 41
0.7695
  7
FontTableH_0
 72
     5
 11
113.271298
 21
227.762057
 31
0.0
100
AcDbText
  0
TEXT
  5
EC
100
AcDbEntity
  8
0
 62
     7
100
AcDbText
 10
120.546745
 20
227.622187
 30
0.0
 40
3.0
  1
φＡ
 41
0.7695
  7
FontTableH_0
 72
     5
 11
126.546745
 21
227.622187
 31
0.0
100
AcDbText
  0
TEXT
  5
ED
100
AcDbEntity
  8
0
 62
     7
100
AcDbText
 10
133.771328
 20
227.622187
 30
0.0
 40
3.0
  1
φＢ
 41
0.7695
  7
FontTableH_0
 72
     5
 11
139.771328
 21
227.622187
 31
0.0
100
AcDbText
  0
TEXT
  5
EE
100
AcDbEntity
  8
0
 62
     7
100
AcDbText
 10
122.347112
 20
223.798927
 30
0.0
 40
2.5
  1
165
 41
0.7695
  7
FontTableH_0
 72
     5
 11
127.972112
 21
223.798927
 31
0.0
100
AcDbText
  0
TEXT
  5
EF
100
AcDbEntity
  8
0
 62
     7
100
AcDbText
 10
122.347112
 20
220.773927
 30
0.0
 40
2.5
  1
165
 41
0.7695
  7
FontTableH_0
 72
     5
 11
127.972112
 21
220.773927
 31
0.0
100
AcDbText
  0
TEXT
  5
F0
100
AcDbEntity
  8
0
 62
     7
100
AcDbText
 10
122.347112
 20
217.748927
 30
0.0
 40
2.5
  1
165
 41
0.7695
  7
FontTableH_0
 72
     5
 11
127.972112
 21
217.748927
 31
0.0
100
AcDbText
  0
TEXT
  5
F1
100
AcDbEntity
  8
0
 62
     7
100
AcDbText
 10
135.547112
 20
223.798927
 30
0.0
 40
2.5
  1
165
 41
0.7695
  7
FontTableH_0
 72
     5
 11
141.172112
 21
223.798927
 31
0.0
100
AcDbText
  0
TEXT
  5
F2
100
AcDbEntity
  8
0
 62
     7
100
AcDbText
 10
135.547112
 20
211.698927
 30
0.0
 40
2.5
  1
165
 41
0.7695
  7
FontTableH_0
 72
     5
 11
141.172112
 21
211.698927
 31
0.0
100
AcDbText
  0
TEXT
  5
F3
100
AcDbEntity
  8
0
 62
     7
100
AcDbText
 10
135.547112
 20
196.573927
 30
0.0
 40
2.5
  1
165
 41
0.7695
  7
FontTableH_0
 72
     5
 11
141.172112
 21
196.573927
 31
0.0
100
AcDbText
  0
TEXT
  5
F4
100
AcDbEntity
  8
0
 62
     7
100
AcDbText
 10
135.547112
 20
181.448927
 30
0.0
 40
2.5
  1
165
 41
0.7695
  7
FontTableH_0
 72
     5
 11
141.172112
 21
181.448927
 31
0.0
100
AcDbText
  0
TEXT
  5
F5
100
AcDbEntity
  8
0
 62
     7
100
AcDbText
 10
135.547112
 20
163.298927
 30
0.0
 40
2.5
  1
165
 41
0.7695
  7
FontTableH_0
 72
     5
 11
141.172112
 21
163.298927
 31
0.0
100
AcDbText
  0
TEXT
  5
F6
100
AcDbEntity
  8
0
 62
     7
100
AcDbText
 10
135.547112
 20
96.748928
 30
0.0
 40
2.5
  1
165
 41
0.7695
  7
FontTableH_0
 72
     5
 11
141.172112
 21
96.748928
 31
0.0
100
AcDbText
  0
TEXT
  5
F7
100
AcDbEntity
  8
0
 62
     7
100
AcDbText
 10
135.547112
 20
69.523928
 30
0.0
 40
2.5
  1
165
 41
0.7695
  7
FontTableH_0
 72
     5
 11
141.172112
 21
69.523928
 31
0.0
100
AcDbText
  0
TEXT
  5
F8
100
AcDbEntity
  8
0
 62
     7
100
AcDbText
 10
122.347112
 20
214.723927
 30
0.0
 40
2.5
  1
216
 41
0.7695
  7
FontTableH_0
 72
     5
 11
127.972112
 21
214.723927
 31
0.0
100
AcDbText
  0
TEXT
  5
F9
100
AcDbEntity
  8
0
 62
     7
100
AcDbText
 10
122.347112
 20
211.698927
 30
0.0
 40
2.5
  1
216
 41
0.7695
  7
FontTableH_0
 72
     5
 11
127.972112
 21
211.698927
 31
0.0
100
AcDbText
  0
TEXT
  5
FA
100
AcDbEntity
  8
0
 62
     7
100
AcDbText
 10
122.347112
 20
208.673927
 30
0.0
 40
2.5
  1
216
 41
0.7695
  7
FontTableH_0
 72
     5
 11
127.972112
 21
208.673927
 31
0.0
100
AcDbText
  0
TEXT
  5
FB
100
AcDbEntity
  8
0
 62
     7
100
AcDbText
 10
122.347112
 20
205.648927
 30
0.0
 40
2.5
  1
216
 41
0.7695
  7
FontTableH_0
 72
     5
 11
127.972112
 21
205.648927
 31
0.0
100
AcDbText
  0
TEXT
  5
FC
100
AcDbEntity
  8
0
 62
     7
100
AcDbText
 10
122.347112
 20
202.623927
 30
0.0
 40
2.5
  1
267
 41
0.7695
  7
FontTableH_0
 72
     5
 11
127.972112
 21
202.623927
 31
0.0
100
AcDbText
  0
TEXT
  5
FD
100
AcDbEntity
  8
0
 62
     7
100
AcDbText
 10
122.347112
 20
199.598927
 30
0.0
 40
2.5
  1
267
 41
0.7695
  7
FontTableH_0
 72
     5
 11
127.972112
 21
199.598927
 31
0.0
100
AcDbText
  0
TEXT
  5
FE
100
AcDbEntity
  8
0
 62
     7
100
AcDbText
 10
122.347112
 20
196.573927
 30
0.0
 40
2.5
  1
267
 41
0.7695
  7
FontTableH_0
 72
     5
 11
127.972112
 21
196.573927
 31
0.0
100
AcDbText
  0
TEXT
  5
FF
100
AcDbEntity
  8
0
 62
     7
100
AcDbText
 10
122.347112
 20
193.548927
 30
0.0
 40
2.5
  1
267
 41
0.7695
  7
FontTableH_0
 72
     5
 11
127.972112
 21
193.548927
 31
0.0
100
AcDbText
  0
TEXT
  5
100
100
AcDbEntity
  8
0
 62
     7
100
AcDbText
 10
122.347112
 20
190.523927
 30
0.0
 40
2.5
  1
318
 41
0.7695
  7
FontTableH_0
 72
     5
 11
127.972112
 21
190.523927
 31
0.0
100
AcDbText
  0
TEXT
  5
101
100
AcDbEntity
  8
0
 62
     7
100
AcDbText
 10
122.347112
 20
187.498927
 30
0.0
 40
2.5
  1
318
 41
0.7695
  7
FontTableH_0
 72
     5
 11
127.972112
 21
187.498927
 31
0.0
100
AcDbText
  0
TEXT
  5
102
100
AcDbEntity
  8
0
 62
     7
100
AcDbText
 10
122.347112
 20
184.473927
 30
0.0
 40
2.5
  1
318
 41
0.7695
  7
FontTableH_0
 72
     5
 11
127.972112
 21
184.473927
 31
0.0
100
AcDbText
  0
TEXT
  5
103
100
AcDbEntity
  8
0
 62
     7
100
AcDbText
 10
122.347112
 20
181.448927
 30
0.0
 40
2.5
  1
318
 41
0.7695
  7
FontTableH_0
 72
     5
 11
127.972112
 21
181.448927
 31
0.0
100
AcDbText
  0
TEXT
  5
104
100
AcDbEntity
  8
0
 62
     7
100
AcDbText
 10
122.347112
 20
178.423927
 30
0.0
 40
2.5
  1
318
 41
0.7695
  7
FontTableH_0
 72
     5
 11
127.972112
 21
178.423927
 31
0.0
100
AcDbText
  0
TEXT
  5
105
100
AcDbEntity
  8
0
 62
     7
100
AcDbText
 10
122.347112
 20
175.398927
 30
0.0
 40
2.5
  1
370
 41
0.7695
  7
FontTableH_0
 72
     5
 11
127.972112
 21
175.398927
 31
0.0
100
AcDbText
  0
TEXT
  5
106
100
AcDbEntity
  8
0
 62
     7
100
AcDbText
 10
122.347112
 20
172.373927
 30
0.0
 40
2.5
  1
370
 41
0.7695
  7
FontTableH_0
 72
     5
 11
127.972112
 21
172.373927
 31
0.0
100
AcDbText
  0
TEXT
  5
107
100
AcDbEntity
  8
0
 62
     7
100
AcDbText
 10
122.347112
 20
169.348927
 30
0.0
 40
2.5
  1
370
 41
0.7695
  7
FontTableH_0
 72
     5
 11
127.972112
 21
169.348927
 31
0.0
100
AcDbText
  0
TEXT
  5
108
100
AcDbEntity
  8
0
 62
     7
100
AcDbText
 10
122.347112
 20
166.323927
 30
0.0
 40
2.5
  1
370
 41
0.7695
  7
FontTableH_0
 72
     5
 11
127.972112
 21
166.323927
 31
0.0
100
AcDbText
  0
TEXT
  5
109
100
AcDbEntity
  8
0
 62
     7
100
AcDbText
 10
122.347112
 20
163.298927
 30
0.0
 40
2.5
  1
370
 41
0.7695
  7
FontTableH_0
 72
     5
 11
127.972112
 21
163.298927
 31
0.0
100
AcDbText
  0
TEXT
  5
10A
100
AcDbEntity
  8
0
 62
     7
100
AcDbText
 10
122.347112
 20
160.273927
 30
0.0
 40
2.5
  1
370
 41
0.7695
  7
FontTableH_0
 72
     5
 11
127.972112
 21
160.273927
 31
0.0
100
AcDbText
  0
TEXT
  5
10B
100
AcDbEntity
  8
0
 62
     7
100
AcDbText
 10
122.347112
 20
157.248927
 30
0.0
 40
2.5
  1
420
 41
0.7695
  7
FontTableH_0
 72
     5
 11
127.972112
 21
157.248927
 31
0.0
100
AcDbText
  0
TEXT
  5
10C
100
AcDbEntity
  8
0
 62
     7
100
AcDbText
 10
122.347112
 20
154.223927
 30
0.0
 40
2.5
  1
420
 41
0.7695
  7
FontTableH_0
 72
     5
 11
127.972112
 21
154.223927
 31
0.0
100
AcDbText
  0
TEXT
  5
10D
100
AcDbEntity
  8
0
 62
     7
100
AcDbText
 10
122.347112
 20
151.198927
 30
0.0
 40
2.5
  1
420
 41
0.7695
  7
FontTableH_0
 72
     5
 11
127.972112
 21
151.198927
 31
0.0
100
AcDbText
  0
TEXT
  5
10E
100
AcDbEntity
  8
0
 62
     7
100
AcDbText
 10
122.347112
 20
148.173927
 30
0.0
 40
2.5
  1
420
 41
0.7695
  7
FontTableH_0
 72
     5
 11
127.972112
 21
148.173927
 31
0.0
100
AcDbText
  0
TEXT
  5
10F
100
AcDbEntity
  8
0
 62
     7
100
AcDbText
 10
122.347112
 20
145.148927
 30
0.0
 40
2.5
  1
420
 41
0.7695
  7
FontTableH_0
 72
     5
 11
127.972112
 21
145.148927
 31
0.0
100
AcDbText
  0
TEXT
  5
110
100
AcDbEntity
  8
0
 62
     7
100
AcDbText
 10
122.347112
 20
142.123927
 30
0.0
 40
2.5
  1
420
 41
0.7695
  7
FontTableH_0
 72
     5
 11
127.972112
 21
142.123927
 31
0.0
100
AcDbText
  0
TEXT
  5
111
100
AcDbEntity
  8
0
 62
     7
100
AcDbText
 10
122.347112
 20
139.098927
 30
0.0
 40
2.5
  1
470
 41
0.7695
  7
FontTableH_0
 72
     5
 11
127.972112
 21
139.098927
 31
0.0
100
AcDbText
  0
TEXT
  5
112
100
AcDbEntity
  8
0
 62
     7
100
AcDbText
 10
122.347112
 20
136.073928
 30
0.0
 40
2.5
  1
470
 41
0.7695
  7
FontTableH_0
 72
     5
 11
127.972112
 21
136.073928
 31
0.0
100
AcDbText
  0
TEXT
  5
113
100
AcDbEntity
  8
0
 62
     7
100
AcDbText
 10
122.347112
 20
133.048928
 30
0.0
 40
2.5
  1
470
 41
0.7695
  7
FontTableH_0
 72
     5
 11
127.972112
 21
133.048928
 31
0.0
100
AcDbText
  0
TEXT
  5
114
100
AcDbEntity
  8
0
 62
     7
100
AcDbText
 10
122.347112
 20
130.023928
 30
0.0
 40
2.5
  1
470
 41
0.7695
  7
FontTableH_0
 72
     5
 11
127.972112
 21
130.023928
 31
0.0
100
AcDbText
  0
TEXT
  5
115
100
AcDbEntity
  8
0
 62
     7
100
AcDbText
 10
122.347112
 20
126.998928
 30
0.0
 40
2.5
  1
470
 41
0.7695
  7
FontTableH_0
 72
     5
 11
127.972112
 21
126.998928
 31
0.0
100
AcDbText
  0
TEXT
  5
116
100
AcDbEntity
  8
0
 62
     7
100
AcDbText
 10
122.347112
 20
123.973928
 30
0.0
 40
2.5
  1
470
 41
0.7695
  7
FontTableH_0
 72
     5
 11
127.972112
 21
123.973928
 31
0.0
100
AcDbText
  0
TEXT
  5
117
100
AcDbEntity
  8
0
 62
     7
100
AcDbText
 10
122.347112
 20
120.948928
 30
0.0
 40
2.5
  1
470
 41
0.7695
  7
FontTableH_0
 72
     5
 11
127.972112
 21
120.948928
 31
0.0
100
AcDbText
  0
TEXT
  5
118
100
AcDbEntity
  8
0
 62
     7
100
AcDbText
 10
122.347112
 20
117.923928
 30
0.0
 40
2.5
  1
520
 41
0.7695
  7
FontTableH_0
 72
     5
 11
127.972112
 21
117.923928
 31
0.0
100
AcDbText
  0
TEXT
  5
119
100
AcDbEntity
  8
0
 62
     7
100
AcDbText
 10
122.347112
 20
114.898928
 30
0.0
 40
2.5
  1
520
 41
0.7695
  7
FontTableH_0
 72
     5
 11
127.972112
 21
114.898928
 31
0.0
100
AcDbText
  0
TEXT
  5
11A
100
AcDbEntity
  8
0
 62
     7
100
AcDbText
 10
122.347112
 20
111.873928
 30
0.0
 40
2.5
  1
520
 41
0.7695
  7
FontTableH_0
 72
     5
 11
127.972112
 21
111.873928
 31
0.0
100
AcDbText
  0
TEXT
  5
11B
100
AcDbEntity
  8
0
 62
     7
100
AcDbText
 10
122.347112
 20
108.848928
 30
0.0
 40
2.5
  1
520
 41
0.7695
  7
FontTableH_0
 72
     5
 11
127.972112
 21
108.848928
 31
0.0
100
AcDbText
  0
TEXT
  5
11C
100
AcDbEntity
  8
0
 62
     7
100
AcDbText
 10
122.347112
 20
105.823928
 30
0.0
 40
2.5
  1
520
 41
0.7695
  7
FontTableH_0
 72
     5
 11
127.972112
 21
105.823928
 31
0.0
100
AcDbText
  0
TEXT
  5
11D
100
AcDbEntity
  8
0
 62
     7
100
AcDbText
 10
122.347112
 20
102.798928
 30
0.0
 40
2.5
  1
520
 41
0.7695
  7
FontTableH_0
 72
     5
 11
127.972112
 21
102.798928
 31
0.0
100
AcDbText
  0
TEXT
  5
11E
100
AcDbEntity
  8
0
 62
     7
100
AcDbText
 10
122.347112
 20
99.773928
 30
0.0
 40
2.5
  1
520
 41
0.7695
  7
FontTableH_0
 72
     5
 11
127.972112
 21
99.773928
 31
0.0
100
AcDbText
  0
TEXT
  5
11F
100
AcDbEntity
  8
0
 62
     7
100
AcDbText
 10
122.347112
 20
96.748928
 30
0.0
 40
2.5
  1
520
 41
0.7695
  7
FontTableH_0
 72
     5
 11
127.972112
 21
96.748928
 31
0.0
100
AcDbText
  0
TEXT
  5
120
100
AcDbEntity
  8
0
 62
     7
100
AcDbText
 10
122.347112
 20
93.723928
 30
0.0
 40
2.5
  1
612
 41
0.7695
  7
FontTableH_0
 72
     5
 11
127.972112
 21
93.723928
 31
0.0
100
AcDbText
  0
TEXT
  5
121
100
AcDbEntity
  8
0
 62
     7
100
AcDbText
 10
122.347112
 20
90.698928
 30
0.0
 40
2.5
  1
612
 41
0.7695
  7
FontTableH_0
 72
     5
 11
127.972112
 21
90.698928
 31
0.0
100
AcDbText
  0
TEXT
  5
122
100
AcDbEntity
  8
0
 62
     7
100
AcDbText
 10
122.347112
 20
87.673928
 30
0.0
 40
2.5
  1
612
 41
0.7695
  7
FontTableH_0
 72
     5
 11
127.972112
 21
87.673928
 31
0.0
100
AcDbText
  0
TEXT
  5
123
100
AcDbEntity
  8
0
 62
     7
100
AcDbText
 10
122.347112
 20
84.648928
 30
0.0
 40
2.5
  1
612
 41
0.7695
  7
FontTableH_0
 72
     5
 11
127.972112
 21
84.648928
 31
0.0
100
AcDbText
  0
TEXT
  5
124
100
AcDbEntity
  8
0
 62
     7
100
AcDbText
 10
122.347112
 20
81.623928
 30
0.0
 40
2.5
  1
612
 41
0.7695
  7
FontTableH_0
 72
     5
 11
127.972112
 21
81.623928
 31
0.0
100
AcDbText
  0
TEXT
  5
125
100
AcDbEntity
  8
0
 62
     7
100
AcDbText
 10
122.347112
 20
78.598928
 30
0.0
 40
2.5
  1
612
 41
0.7695
  7
FontTableH_0
 72
     5
 11
127.972112
 21
78.598928
 31
0.0
100
AcDbText
  0
TEXT
  5
126
100
AcDbEntity
  8
0
 62
     7
100
AcDbText
 10
122.347112
 20
75.573928
 30
0.0
 40
2.5
  1
612
 41
0.7695
  7
FontTableH_0
 72
     5
 11
127.972112
 21
75.573928
 31
0.0
100
AcDbText
  0
TEXT
  5
127
100
AcDbEntity
  8
0
 62
     7
100
AcDbText
 10
122.347112
 20
72.548928
 30
0.0
 40
2.5
  1
612
 41
0.7695
  7
FontTableH_0
 72
     5
 11
127.972112
 21
72.548928
 31
0.0
100
AcDbText
  0
TEXT
  5
128
100
AcDbEntity
  8
0
 62
     7
100
AcDbText
 10
122.347112
 20
69.523928
 30
0.0
 40
2.5
  1
612
 41
0.7695
  7
FontTableH_0
 72
     5
 11
127.972112
 21
69.523928
 31
0.0
100
AcDbText
  0
TEXT
  5
129
100
AcDbEntity
  8
0
 62
     7
100
AcDbText
 10
135.547112
 20
220.773927
 30
0.0
 40
2.5
  1
140
 41
0.7695
  7
FontTableH_0
 72
     5
 11
141.172112
 21
220.773927
 31
0.0
100
AcDbText
  0
TEXT
  5
12A
100
AcDbEntity
  8
0
 62
     7
100
AcDbText
 10
135.547112
 20
217.748927
 30
0.0
 40
2.5
  1
114
 41
0.7695
  7
FontTableH_0
 72
     5
 11
141.172112
 21
217.748927
 31
0.0
100
AcDbText
  0
TEXT
  5
12B
100
AcDbEntity
  8
0
 62
     7
100
AcDbText
 10
135.547112
 20
214.723927
 30
0.0
 40
2.5
  1
216
 41
0.7695
  7
FontTableH_0
 72
     5
 11
141.172112
 21
214.723927
 31
0.0
100
AcDbText
  0
TEXT
  5
12C
100
AcDbEntity
  8
0
 62
     7
100
AcDbText
 10
135.547112
 20
208.673927
 30
0.0
 40
2.5
  1
140
 41
0.7695
  7
FontTableH_0
 72
     5
 11
141.172112
 21
208.673927
 31
0.0
100
AcDbText
  0
TEXT
  5
12D
100
AcDbEntity
  8
0
 62
     7
100
AcDbText
 10
135.547112
 20
205.648927
 30
0.0
 40
2.5
  1
114
 41
0.7695
  7
FontTableH_0
 72
     5
 11
141.172112
 21
205.648927
 31
0.0
100
AcDbText
  0
TEXT
  5
12E
100
AcDbEntity
  8
0
 62
     7
100
AcDbText
 10
135.547112
 20
202.623927
 30
0.0
 40
2.5
  1
267
 41
0.7695
  7
FontTableH_0
 72
     5
 11
141.172112
 21
202.623927
 31
0.0
100
AcDbText
  0
TEXT
  5
12F
100
AcDbEntity
  8
0
 62
     7
100
AcDbText
 10
135.547112
 20
199.598927
 30
0.0
 40
2.5
  1
216
 41
0.7695
  7
FontTableH_0
 72
     5
 11
141.172112
 21
199.598927
 31
0.0
100
AcDbText
  0
TEXT
  5
130
100
AcDbEntity
  8
0
 62
     7
100
AcDbText
 10
135.547112
 20
193.548927
 30
0.0
 40
2.5
  1
140
 41
0.7695
  7
FontTableH_0
 72
     5
 11
141.172112
 21
193.548927
 31
0.0
100
AcDbText
  0
TEXT
  5
131
100
AcDbEntity
  8
0
 62
     7
100
AcDbText
 10
135.547112
 20
190.523927
 30
0.0
 40
2.5
  1
318
 41
0.7695
  7
FontTableH_0
 72
     5
 11
141.172112
 21
190.523927
 31
0.0
100
AcDbText
  0
TEXT
  5
132
100
AcDbEntity
  8
0
 62
     7
100
AcDbText
 10
135.547112
 20
187.498927
 30
0.0
 40
2.5
  1
267
 41
0.7695
  7
FontTableH_0
 72
     5
 11
141.172112
 21
187.498927
 31
0.0
100
AcDbText
  0
TEXT
  5
133
100
AcDbEntity
  8
0
 62
     7
100
AcDbText
 10
135.547112
 20
184.473927
 30
0.0
 40
2.5
  1
216
 41
0.7695
  7
FontTableH_0
 72
     5
 11
141.172112
 21
184.473927
 31
0.0
100
AcDbText
  0
TEXT
  5
134
100
AcDbEntity
  8
0
 62
     7
100
AcDbText
 10
135.547112
 20
178.423927
 30
0.0
 40
2.5
  1
140
 41
0.7695
  7
FontTableH_0
 72
     5
 11
141.172112
 21
178.423927
 31
0.0
100
AcDbText
  0
TEXT
  5
135
100
AcDbEntity
  8
0
 62
     7
100
AcDbText
 10
135.547112
 20
175.398927
 30
0.0
 40
2.5
  1
370
 41
0.7695
  7
FontTableH_0
 72
     5
 11
141.172112
 21
175.398927
 31
0.0
100
AcDbText
  0
TEXT
  5
136
100
AcDbEntity
  8
0
 62
     7
100
AcDbText
 10
135.547112
 20
172.373927
 30
0.0
 40
2.5
  1
318
 41
0.7695
  7
FontTableH_0
 72
     5
 11
141.172112
 21
172.373927
 31
0.0
100
AcDbText
  0
TEXT
  5
137
100
AcDbEntity
  8
0
 62
     7
100
AcDbText
 10
135.547112
 20
169.348927
 30
0.0
 40
2.5
  1
267
 41
0.7695
  7
FontTableH_0
 72
     5
 11
141.172112
 21
169.348927
 31
0.0
100
AcDbText
  0
TEXT
  5
138
100
AcDbEntity
  8
0
 62
     7
100
AcDbText
 10
135.547112
 20
166.323927
 30
0.0
 40
2.5
  1
216
 41
0.7695
  7
FontTableH_0
 72
     5
 11
141.172112
 21
166.323927
 31
0.0
100
AcDbText
  0
TEXT
  5
139
100
AcDbEntity
  8
0
 62
     7
100
AcDbText
 10
135.547112
 20
160.273927
 30
0.0
 40
2.5
  1
140
 41
0.7695
  7
FontTableH_0
 72
     5
 11
141.172112
 21
160.273927
 31
0.0
100
AcDbText
  0
TEXT
  5
13A
100
AcDbEntity
  8
0
 62
     7
100
AcDbText
 10
135.547112
 20
157.248927
 30
0.0
 40
2.5
  1
420
 41
0.7695
  7
FontTableH_0
 72
     5
 11
141.172112
 21
157.248927
 31
0.0
100
AcDbText
  0
TEXT
  5
13B
100
AcDbEntity
  8
0
 62
     7
100
AcDbText
 10
135.547112
 20
154.223927
 30
0.0
 40
2.5
  1
370
 41
0.7695
  7
FontTableH_0
 72
     5
 11
141.172112
 21
154.223927
 31
0.0
100
AcDbText
  0
TEXT
  5
13C
100
AcDbEntity
  8
0
 62
     7
100
AcDbText
 10
135.547112
 20
151.198927
 30
0.0
 40
2.5
  1
318
 41
0.7695
  7
FontTableH_0
 72
     5
 11
141.172112
 21
151.198927
 31
0.0
100
AcDbText
  0
TEXT
  5
13D
100
AcDbEntity
  8
0
 62
     7
100
AcDbText
 10
135.547112
 20
148.173927
 30
0.0
 40
2.5
  1
267
 41
0.7695
  7
FontTableH_0
 72
     5
 11
141.172112
 21
148.173927
 31
0.0
100
AcDbText
  0
TEXT
  5
13E
100
AcDbEntity
  8
0
 62
     7
100
AcDbText
 10
135.547112
 20
145.148927
 30
0.0
 40
2.5
  1
216
 41
0.7695
  7
FontTableH_0
 72
     5
 11
141.172112
 21
145.148927
 31
0.0
100
AcDbText
  0
TEXT
  5
13F
100
AcDbEntity
  8
0
 62
     7
100
AcDbText
 10
135.547112
 20
142.123927
 30
0.0
 40
2.5
  1
165
 41
0.7695
  7
FontTableH_0
 72
     5
 11
141.172112
 21
142.123927
 31
0.0
100
AcDbText
  0
TEXT
  5
140
100
AcDbEntity
  8
0
 62
     7
100
AcDbText
 10
135.547112
 20
139.098927
 30
0.0
 40
2.5
  1
470
 41
0.7695
  7
FontTableH_0
 72
     5
 11
141.172112
 21
139.098927
 31
0.0
100
AcDbText
  0
TEXT
  5
141
100
AcDbEntity
  8
0
 62
     7
100
AcDbText
 10
135.547112
 20
136.073928
 30
0.0
 40
2.5
  1
420
 41
0.7695
  7
FontTableH_0
 72
     5
 11
141.172112
 21
136.073928
 31
0.0
100
AcDbText
  0
TEXT
  5
142
100
AcDbEntity
  8
0
 62
     7
100
AcDbText
 10
135.547112
 20
133.048928
 30
0.0
 40
2.5
  1
370
 41
0.7695
  7
FontTableH_0
 72
     5
 11
141.172112
 21
133.048928
 31
0.0
100
AcDbText
  0
TEXT
  5
143
100
AcDbEntity
  8
0
 62
     7
100
AcDbText
 10
135.547112
 20
130.023928
 30
0.0
 40
2.5
  1
318
 41
0.7695
  7
FontTableH_0
 72
     5
 11
141.172112
 21
130.023928
 31
0.0
100
AcDbText
  0
TEXT
  5
144
100
AcDbEntity
  8
0
 62
     7
100
AcDbText
 10
135.547112
 20
126.998928
 30
0.0
 40
2.5
  1
267
 41
0.7695
  7
FontTableH_0
 72
     5
 11
141.172112
 21
126.998928
 31
0.0
100
AcDbText
  0
TEXT
  5
145
100
AcDbEntity
  8
0
 62
     7
100
AcDbText
 10
135.547112
 20
123.973928
 30
0.0
 40
2.5
  1
216
 41
0.7695
  7
FontTableH_0
 72
     5
 11
141.172112
 21
123.973928
 31
0.0
100
AcDbText
  0
TEXT
  5
146
100
AcDbEntity
  8
0
 62
     7
100
AcDbText
 10
135.547112
 20
120.948928
 30
0.0
 40
2.5
  1
165
 41
0.7695
  7
FontTableH_0
 72
     5
 11
141.172112
 21
120.948928
 31
0.0
100
AcDbText
  0
TEXT
  5
147
100
AcDbEntity
  8
0
 62
     7
100
AcDbText
 10
135.547112
 20
117.923928
 30
0.0
 40
2.5
  1
520
 41
0.7695
  7
FontTableH_0
 72
     5
 11
141.172112
 21
117.923928
 31
0.0
100
AcDbText
  0
TEXT
  5
148
100
AcDbEntity
  8
0
 62
     7
100
AcDbText
 10
135.547112
 20
114.898928
 30
0.0
 40
2.5
  1
470
 41
0.7695
  7
FontTableH_0
 72
     5
 11
141.172112
 21
114.898928
 31
0.0
100
AcDbText
  0
TEXT
  5
149
100
AcDbEntity
  8
0
 62
     7
100
AcDbText
 10
135.547112
 20
111.873928
 30
0.0
 40
2.5
  1
420
 41
0.7695
  7
FontTableH_0
 72
     5
 11
141.172112
 21
111.873928
 31
0.0
100
AcDbText
  0
TEXT
  5
14A
100
AcDbEntity
  8
0
 62
     7
100
AcDbText
 10
135.547112
 20
108.848928
 30
0.0
 40
2.5
  1
370
 41
0.7695
  7
FontTableH_0
 72
     5
 11
141.172112
 21
108.848928
 31
0.0
100
AcDbText
  0
TEXT
  5
14B
100
AcDbEntity
  8
0
 62
     7
100
AcDbText
 10
135.547112
 20
105.823928
 30
0.0
 40
2.5
  1
318
 41
0.7695
  7
FontTableH_0
 72
     5
 11
141.172112
 21
105.823928
 31
0.0
100
AcDbText
  0
TEXT
  5
14C
100
AcDbEntity
  8
0
 62
     7
100
AcDbText
 10
135.547112
 20
102.798928
 30
0.0
 40
2.5
  1
267
 41
0.7695
  7
FontTableH_0
 72
     5
 11
141.172112
 21
102.798928
 31
0.0
100
AcDbText
  0
TEXT
  5
14D
100
AcDbEntity
  8
0
 62
     7
100
AcDbText
 10
135.547112
 20
99.773928
 30
0.0
 40
2.5
  1
216
 41
0.7695
  7
FontTableH_0
 72
     5
 11
141.172112
 21
99.773928
 31
0.0
100
AcDbText
  0
TEXT
  5
14E
100
AcDbEntity
  8
0
 62
     7
100
AcDbText
 10
135.547112
 20
93.723928
 30
0.0
 40
2.5
  1
612
 41
0.7695
  7
FontTableH_0
 72
     5
 11
141.172112
 21
93.723928
 31
0.0
100
AcDbText
  0
TEXT
  5
14F
100
AcDbEntity
  8
0
 62
     7
100
AcDbText
 10
135.547112
 20
90.698928
 30
0.0
 40
2.5
  1
520
 41
0.7695
  7
FontTableH_0
 72
     5
 11
141.172112
 21
90.698928
 31
0.0
100
AcDbText
  0
TEXT
  5
150
100
AcDbEntity
  8
0
 62
     7
100
AcDbText
 10
135.547112
 20
87.673928
 30
0.0
 40
2.5
  1
470
 41
0.7695
  7
FontTableH_0
 72
     5
 11
141.172112
 21
87.673928
 31
0.0
100
AcDbText
  0
TEXT
  5
151
100
AcDbEntity
  8
0
 62
     7
100
AcDbText
 10
135.547112
 20
84.648928
 30
0.0
 40
2.5
  1
420
 41
0.7695
  7
FontTableH_0
 72
     5
 11
141.172112
 21
84.648928
 31
0.0
100
AcDbText
  0
TEXT
  5
152
100
AcDbEntity
  8
0
 62
     7
100
AcDbText
 10
135.547112
 20
81.623928
 30
0.0
 40
2.5
  1
370
 41
0.7695
  7
FontTableH_0
 72
     5
 11
141.172112
 21
81.623928
 31
0.0
100
AcDbText
  0
TEXT
  5
153
100
AcDbEntity
  8
0
 62
     7
100
AcDbText
 10
135.547112
 20
78.598928
 30
0.0
 40
2.5
  1
318
 41
0.7695
  7
FontTableH_0
 72
     5
 11
141.172112
 21
78.598928
 31
0.0
100
AcDbText
  0
TEXT
  5
154
100
AcDbEntity
  8
0
 62
     7
100
AcDbText
 10
135.547112
 20
75.573928
 30
0.0
 40
2.5
  1
267
 41
0.7695
  7
FontTableH_0
 72
     5
 11
141.172112
 21
75.573928
 31
0.0
100
AcDbText
  0
TEXT
  5
155
100
AcDbEntity
  8
0
 62
     7
100
AcDbText
 10
135.547112
 20
72.548928
 30
0.0
 40
2.5
  1
216
 41
0.7695
  7
FontTableH_0
 72
     5
 11
141.172112
 21
72.548928
 31
0.0
100
AcDbText
  0
TEXT
  5
156
100
AcDbEntity
  8
0
 62
     7
100
AcDbText
 10
148.747112
 20
223.798927
 30
0.0
 40
2.5
  1
465
 41
0.7695
  7
FontTableH_0
 72
     5
 11
154.372112
 21
223.798927
 31
0.0
100
AcDbText
  0
TEXT
  5
157
100
AcDbEntity
  8
0
 62
     7
100
AcDbText
 10
148.747112
 20
214.723927
 30
0.0
 40
2.5
  1
516
 41
0.7695
  7
FontTableH_0
 72
     5
 11
154.372112
 21
214.723927
 31
0.0
100
AcDbText
  0
TEXT
  5
158
100
AcDbEntity
  8
0
 62
     7
100
AcDbText
 10
148.747112
 20
211.698927
 30
0.0
 40
2.5
  1
465
 41
0.7695
  7
FontTableH_0
 72
     5
 11
154.372112
 21
211.698927
 31
0.0
100
AcDbText
  0
TEXT
  5
159
100
AcDbEntity
  8
0
 62
     7
100
AcDbText
 10
148.747112
 20
202.623927
 30
0.0
 40
2.5
  1
587
 41
0.7695
  7
FontTableH_0
 72
     5
 11
154.372112
 21
202.623927
 31
0.0
100
AcDbText
  0
TEXT
  5
15A
100
AcDbEntity
  8
0
 62
     7
100
AcDbText
 10
148.747112
 20
175.398927
 30
0.0
 40
2.5
  1
730
 41
0.7695
  7
FontTableH_0
 72
     5
 11
154.372112
 21
175.398927
 31
0.0
100
AcDbText
  0
TEXT
  5
15B
100
AcDbEntity
  8
0
 62
     7
100
AcDbText
 10
148.747112
 20
157.248927
 30
0.0
 40
2.5
  1
800
 41
0.7695
  7
FontTableH_0
 72
     5
 11
154.372112
 21
157.248927
 31
0.0
100
AcDbText
  0
TEXT
  5
15C
100
AcDbEntity
  8
0
 62
     7
100
AcDbText
 10
148.747112
 20
139.098927
 30
0.0
 40
2.5
  1
850
 41
0.7695
  7
FontTableH_0
 72
     5
 11
154.372112
 21
139.098927
 31
0.0
100
AcDbText
  0
TEXT
  5
15D
100
AcDbEntity
  8
0
 62
     7
100
AcDbText
 10
148.747112
 20
136.073928
 30
0.0
 40
2.5
  1
800
 41
0.7695
  7
FontTableH_0
 72
     5
 11
154.372112
 21
136.073928
 31
0.0
100
AcDbText
  0
TEXT
  5
15E
100
AcDbEntity
  8
0
 62
     7
100
AcDbText
 10
148.747112
 20
117.923928
 30
0.0
 40
2.5
  1
900
 41
0.7695
  7
FontTableH_0
 72
     5
 11
154.372112
 21
117.923928
 31
0.0
100
AcDbText
  0
TEXT
  5
15F
100
AcDbEntity
  8
0
 62
     7
100
AcDbText
 10
148.747112
 20
114.898928
 30
0.0
 40
2.5
  1
850
 41
0.7695
  7
FontTableH_0
 72
     5
 11
154.372112
 21
114.898928
 31
0.0
100
AcDbText
  0
TEXT
  5
160
100
AcDbEntity
  8
0
 62
     7
100
AcDbText
 10
148.747112
 20
111.873928
 30
0.0
 40
2.5
  1
800
 41
0.7695
  7
FontTableH_0
 72
     5
 11
154.372112
 21
111.873928
 31
0.0
100
AcDbText
  0
TEXT
  5
161
100
AcDbEntity
  8
0
 62
     7
100
AcDbText
 10
147.427112
 20
93.723928
 30
0.0
 40
2.5
  1
1012
 41
0.7695
  7
FontTableH_0
 72
     5
 11
154.927112
 21
93.723928
 31
0.0
100
AcDbText
  0
TEXT
  5
162
100
AcDbEntity
  8
0
 62
     7
100
AcDbText
 10
161.947112
 20
214.723927
 30
0.0
 40
2.5
  1
258
 41
0.7695
  7
FontTableH_0
 72
     5
 11
167.572112
 21
214.723927
 31
0.0
100
AcDbText
  0
TEXT
  5
163
100
AcDbEntity
  8
0
 62
     7
100
AcDbText
 10
161.947112
 20
211.698927
 30
0.0
 40
2.5
  1
258
 41
0.7695
  7
FontTableH_0
 72
     5
 11
167.572112
 21
211.698927
 31
0.0
100
AcDbText
  0
TEXT
  5
164
100
AcDbEntity
  8
0
 62
     7
100
AcDbText
 10
161.947112
 20
208.673927
 30
0.0
 40
2.5
  1
238
 41
0.7695
  7
FontTableH_0
 72
     5
 11
167.572112
 21
208.673927
 31
0.0
100
AcDbText
  0
TEXT
  5
165
100
AcDbEntity
  8
0
 62
     7
100
AcDbText
 10
161.947112
 20
205.648927
 30
0.0
 40
2.5
  1
238
 41
0.7695
  7
FontTableH_0
 72
     5
 11
167.572112
 21
205.648927
 31
0.0
100
AcDbText
  0
TEXT
  5
166
100
AcDbEntity
  8
0
 62
     7
100
AcDbText
 10
161.947112
 20
190.523927
 30
0.0
 40
2.5
  1
329
 41
0.7695
  7
FontTableH_0
 72
     5
 11
167.572112
 21
190.523927
 31
0.0
100
AcDbText
  0
TEXT
  5
167
100
AcDbEntity
  8
0
 62
     7
100
AcDbText
 10
161.947112
 20
187.498927
 30
0.0
 40
2.5
  1
319
 41
0.7695
  7
FontTableH_0
 72
     5
 11
167.572112
 21
187.498927
 31
0.0
100
AcDbText
  0
TEXT
  5
168
100
AcDbEntity
  8
0
 62
     7
100
AcDbText
 10
161.947112
 20
184.473927
 30
0.0
 40
2.5
  1
309
 41
0.7695
  7
FontTableH_0
 72
     5
 11
167.572112
 21
184.473927
 31
0.0
100
AcDbText
  0
TEXT
  5
169
100
AcDbEntity
  8
0
 62
     7
100
AcDbText
 10
161.947112
 20
181.448927
 30
0.0
 40
2.5
  1
309
 41
0.7695
  7
FontTableH_0
 72
     5
 11
167.572112
 21
181.448927
 31
0.0
100
AcDbText
  0
TEXT
  5
16A
100
AcDbEntity
  8
0
 62
     7
100
AcDbText
 10
161.947112
 20
178.423927
 30
0.0
 40
2.5
  1
289
 41
0.7695
  7
FontTableH_0
 72
     5
 11
167.572112
 21
178.423927
 31
0.0
100
AcDbText
  0
TEXT
  5
16B
100
AcDbEntity
  8
0
 62
     7
100
AcDbText
 10
161.947112
 20
175.398927
 30
0.0
 40
2.5
  1
365
 41
0.7695
  7
FontTableH_0
 72
     5
 11
167.572112
 21
175.398927
 31
0.0
100
AcDbText
  0
TEXT
  5
16C
100
AcDbEntity
  8
0
 62
     7
100
AcDbText
 10
161.947112
 20
172.373927
 30
0.0
 40
2.5
  1
355
 41
0.7695
  7
FontTableH_0
 72
     5
 11
167.572112
 21
172.373927
 31
0.0
100
AcDbText
  0
TEXT
  5
16D
100
AcDbEntity
  8
0
 62
     7
100
AcDbText
 10
161.947112
 20
169.348927
 30
0.0
 40
2.5
  1
345
 41
0.7695
  7
FontTableH_0
 72
     5
 11
167.572112
 21
169.348927
 31
0.0
100
AcDbText
  0
TEXT
  5
16E
100
AcDbEntity
  8
0
 62
     7
100
AcDbText
 10
161.947112
 20
166.323927
 30
0.0
 40
2.5
  1
335
 41
0.7695
  7
FontTableH_0
 72
     5
 11
167.572112
 21
166.323927
 31
0.0
100
AcDbText
  0
TEXT
  5
16F
100
AcDbEntity
  8
0
 62
     7
100
AcDbText
 10
161.947112
 20
163.298927
 30
0.0
 40
2.5
  1
335
 41
0.7695
  7
FontTableH_0
 72
     5
 11
167.572112
 21
163.298927
 31
0.0
100
AcDbText
  0
TEXT
  5
170
100
AcDbEntity
  8
0
 62
     7
100
AcDbText
 10
161.947112
 20
160.273927
 30
0.0
 40
2.5
  1
315
 41
0.7695
  7
FontTableH_0
 72
     5
 11
167.572112
 21
160.273927
 31
0.0
100
AcDbText
  0
TEXT
  5
171
100
AcDbEntity
  8
0
 62
     7
100
AcDbText
 10
161.947112
 20
157.248927
 30
0.0
 40
2.5
  1
400
 41
0.7695
  7
FontTableH_0
 72
     5
 11
167.572112
 21
157.248927
 31
0.0
100
AcDbText
  0
TEXT
  5
172
100
AcDbEntity
  8
0
 62
     7
100
AcDbText
 10
161.947112
 20
154.223927
 30
0.0
 40
2.5
  1
390
 41
0.7695
  7
FontTableH_0
 72
     5
 11
167.572112
 21
154.223927
 31
0.0
100
AcDbText
  0
TEXT
  5
173
100
AcDbEntity
  8
0
 62
     7
100
AcDbText
 10
161.947112
 20
151.198927
 30
0.0
 40
2.5
  1
380
 41
0.7695
  7
FontTableH_0
 72
     5
 11
167.572112
 21
151.198927
 31
0.0
100
AcDbText
  0
TEXT
  5
174
100
AcDbEntity
  8
0
 62
     7
100
AcDbText
 10
161.947112
 20
148.173927
 30
0.0
 40
2.5
  1
370
 41
0.7695
  7
FontTableH_0
 72
     5
 11
167.572112
 21
148.173927
 31
0.0
100
AcDbText
  0
TEXT
  5
175
100
AcDbEntity
  8
0
 62
     7
100
AcDbText
 10
161.947112
 20
145.148927
 30
0.0
 40
2.5
  1
360
 41
0.7695
  7
FontTableH_0
 72
     5
 11
167.572112
 21
145.148927
 31
0.0
100
AcDbText
  0
TEXT
  5
176
100
AcDbEntity
  8
0
 62
     7
100
AcDbText
 10
161.947112
 20
142.123927
 30
0.0
 40
2.5
  1
360
 41
0.7695
  7
FontTableH_0
 72
     5
 11
167.572112
 21
142.123927
 31
0.0
100
AcDbText
  0
TEXT
  5
177
100
AcDbEntity
  8
0
 62
     7
100
AcDbText
 10
161.947112
 20
139.098927
 30
0.0
 40
2.5
  1
425
 41
0.7695
  7
FontTableH_0
 72
     5
 11
167.572112
 21
139.098927
 31
0.0
100
AcDbText
  0
TEXT
  5
178
100
AcDbEntity
  8
0
 62
     7
100
AcDbText
 10
161.947112
 20
136.073928
 30
0.0
 40
2.5
  1
425
 41
0.7695
  7
FontTableH_0
 72
     5
 11
167.572112
 21
136.073928
 31
0.0
100
AcDbText
  0
TEXT
  5
179
100
AcDbEntity
  8
0
 62
     7
100
AcDbText
 10
161.947112
 20
133.048928
 30
0.0
 40
2.5
  1
415
 41
0.7695
  7
FontTableH_0
 72
     5
 11
167.572112
 21
133.048928
 31
0.0
100
AcDbText
  0
TEXT
  5
17A
100
AcDbEntity
  8
0
 62
     7
100
AcDbText
 10
161.947112
 20
130.023928
 30
0.0
 40
2.5
  1
405
 41
0.7695
  7
FontTableH_0
 72
     5
 11
167.572112
 21
130.023928
 31
0.0
100
AcDbText
  0
TEXT
  5
17B
100
AcDbEntity
  8
0
 62
     7
100
AcDbText
 10
161.947112
 20
126.998928
 30
0.0
 40
2.5
  1
395
 41
0.7695
  7
FontTableH_0
 72
     5
 11
167.572112
 21
126.998928
 31
0.0
100
AcDbText
  0
TEXT
  5
17C
100
AcDbEntity
  8
0
 62
     7
100
AcDbText
 10
161.947112
 20
123.973928
 30
0.0
 40
2.5
  1
385
 41
0.7695
  7
FontTableH_0
 72
     5
 11
167.572112
 21
123.973928
 31
0.0
100
AcDbText
  0
TEXT
  5
17D
100
AcDbEntity
  8
0
 62
     7
100
AcDbText
 10
161.947112
 20
120.948928
 30
0.0
 40
2.5
  1
385
 41
0.7695
  7
FontTableH_0
 72
     5
 11
167.572112
 21
120.948928
 31
0.0
100
AcDbText
  0
TEXT
  5
17E
100
AcDbEntity
  8
0
 62
     7
100
AcDbText
 10
161.947112
 20
117.923928
 30
0.0
 40
2.5
  1
450
 41
0.7695
  7
FontTableH_0
 72
     5
 11
167.572112
 21
117.923928
 31
0.0
100
AcDbText
  0
TEXT
  5
17F
100
AcDbEntity
  8
0
 62
     7
100
AcDbText
 10
161.947112
 20
114.898928
 30
0.0
 40
2.5
  1
450
 41
0.7695
  7
FontTableH_0
 72
     5
 11
167.572112
 21
114.898928
 31
0.0
100
AcDbText
  0
TEXT
  5
180
100
AcDbEntity
  8
0
 62
     7
100
AcDbText
 10
161.947112
 20
111.873928
 30
0.0
 40
2.5
  1
450
 41
0.7695
  7
FontTableH_0
 72
     5
 11
167.572112
 21
111.873928
 31
0.0
100
AcDbText
  0
TEXT
  5
181
100
AcDbEntity
  8
0
 62
     7
100
AcDbText
 10
161.947112
 20
108.848928
 30
0.0
 40
2.5
  1
440
 41
0.7695
  7
FontTableH_0
 72
     5
 11
167.572112
 21
108.848928
 31
0.0
100
AcDbText
  0
TEXT
  5
182
100
AcDbEntity
  8
0
 62
     7
100
AcDbText
 10
161.947112
 20
105.823928
 30
0.0
 40
2.5
  1
430
 41
0.7695
  7
FontTableH_0
 72
     5
 11
167.572112
 21
105.823928
 31
0.0
100
AcDbText
  0
TEXT
  5
183
100
AcDbEntity
  8
0
 62
     7
100
AcDbText
 10
161.947112
 20
102.798928
 30
0.0
 40
2.5
  1
420
 41
0.7695
  7
FontTableH_0
 72
     5
 11
167.572112
 21
102.798928
 31
0.0
100
AcDbText
  0
TEXT
  5
184
100
AcDbEntity
  8
0
 62
     7
100
AcDbText
 10
161.947112
 20
99.773928
 30
0.0
 40
2.5
  1
410
 41
0.7695
  7
FontTableH_0
 72
     5
 11
167.572112
 21
99.773928
 31
0.0
100
AcDbText
  0
TEXT
  5
185
100
AcDbEntity
  8
0
 62
     7
100
AcDbText
 10
161.947112
 20
96.748928
 30
0.0
 40
2.5
  1
410
 41
0.7695
  7
FontTableH_0
 72
     5
 11
167.572112
 21
96.748928
 31
0.0
100
AcDbText
  0
TEXT
  5
186
100
AcDbEntity
  8
0
 62
     7
100
AcDbText
 10
161.947112
 20
93.723928
 30
0.0
 40
2.5
  1
506
 41
0.7695
  7
FontTableH_0
 72
     5
 11
167.572112
 21
93.723928
 31
0.0
100
AcDbText
  0
TEXT
  5
187
100
AcDbEntity
  8
0
 62
     7
100
AcDbText
 10
161.947112
 20
90.698928
 30
0.0
 40
2.5
  1
496
 41
0.7695
  7
FontTableH_0
 72
     5
 11
167.572112
 21
90.698928
 31
0.0
100
AcDbText
  0
TEXT
  5
188
100
AcDbEntity
  8
0
 62
     7
100
AcDbText
 10
161.947112
 20
87.673928
 30
0.0
 40
2.5
  1
496
 41
0.7695
  7
FontTableH_0
 72
     5
 11
167.572112
 21
87.673928
 31
0.0
100
AcDbText
  0
TEXT
  5
189
100
AcDbEntity
  8
0
 62
     7
100
AcDbText
 10
161.947112
 20
84.648928
 30
0.0
 40
2.5
  1
496
 41
0.7695
  7
FontTableH_0
 72
     5
 11
167.572112
 21
84.648928
 31
0.0
100
AcDbText
  0
TEXT
  5
18A
100
AcDbEntity
  8
0
 62
     7
100
AcDbText
 10
161.947112
 20
81.623928
 30
0.0
 40
2.5
  1
486
 41
0.7695
  7
FontTableH_0
 72
     5
 11
167.572112
 21
81.623928
 31
0.0
100
AcDbText
  0
TEXT
  5
18B
100
AcDbEntity
  8
0
 62
     7
100
AcDbText
 10
161.947112
 20
78.598928
 30
0.0
 40
2.5
  1
476
 41
0.7695
  7
FontTableH_0
 72
     5
 11
167.572112
 21
78.598928
 31
0.0
100
AcDbText
  0
TEXT
  5
18C
100
AcDbEntity
  8
0
 62
     7
100
AcDbText
 10
161.947112
 20
75.573928
 30
0.0
 40
2.5
  1
466
 41
0.7695
  7
FontTableH_0
 72
     5
 11
167.572112
 21
75.573928
 31
0.0
100
AcDbText
  0
TEXT
  5
18D
100
AcDbEntity
  8
0
 62
     7
100
AcDbText
 10
161.947112
 20
72.548928
 30
0.0
 40
2.5
  1
456
 41
0.7695
  7
FontTableH_0
 72
     5
 11
167.572112
 21
72.548928
 31
0.0
100
AcDbText
  0
TEXT
  5
18E
100
AcDbEntity
  8
0
 62
     7
100
AcDbText
 10
161.947112
 20
69.523928
 30
0.0
 40
2.5
  1
456
 41
0.7695
  7
FontTableH_0
 72
     5
 11
167.572112
 21
69.523928
 31
0.0
100
AcDbText
  0
TEXT
  5
18F
100
AcDbEntity
  8
0
 62
     7
100
AcDbText
 10
175.147112
 20
223.798927
 30
0.0
 40
2.5
  1
100
 41
0.7695
  7
FontTableH_0
 72
     5
 11
180.772112
 21
223.798927
 31
0.0
100
AcDbText
  0
TEXT
  5
190
100
AcDbEntity
  8
0
 62
     7
100
AcDbText
 10
175.147112
 20
220.773927
 30
0.0
 40
2.5
  1
100
 41
0.7695
  7
FontTableH_0
 72
     5
 11
180.772112
 21
220.773927
 31
0.0
100
AcDbText
  0
TEXT
  5
191
100
AcDbEntity
  8
0
 62
     7
100
AcDbText
 10
175.147112
 20
217.748927
 30
0.0
 40
2.5
  1
100
 41
0.7695
  7
FontTableH_0
 72
     5
 11
180.772112
 21
217.748927
 31
0.0
100
AcDbText
  0
TEXT
  5
192
100
AcDbEntity
  8
0
 62
     7
100
AcDbText
 10
175.147112
 20
214.723927
 30
0.0
 40
2.5
  1
100
 41
0.7695
  7
FontTableH_0
 72
     5
 11
180.772112
 21
214.723927
 31
0.0
100
AcDbText
  0
TEXT
  5
193
100
AcDbEntity
  8
0
 62
     7
100
AcDbText
 10
175.147112
 20
211.698927
 30
0.0
 40
2.5
  1
100
 41
0.7695
  7
FontTableH_0
 72
     5
 11
180.772112
 21
211.698927
 31
0.0
100
AcDbText
  0
TEXT
  5
194
100
AcDbEntity
  8
0
 62
     7
100
AcDbText
 10
175.147112
 20
208.673927
 30
0.0
 40
2.5
  1
100
 41
0.7695
  7
FontTableH_0
 72
     5
 11
180.772112
 21
208.673927
 31
0.0
100
AcDbText
  0
TEXT
  5
195
100
AcDbEntity
  8
0
 62
     7
100
AcDbText
 10
175.147112
 20
205.648927
 30
0.0
 40
2.5
  1
100
 41
0.7695
  7
FontTableH_0
 72
     5
 11
180.772112
 21
205.648927
 31
0.0
100
AcDbText
  0
TEXT
  5
196
100
AcDbEntity
  8
0
 62
     7
100
AcDbText
 10
175.147112
 20
202.623927
 30
0.0
 40
2.5
  1
110
 41
0.7695
  7
FontTableH_0
 72
     5
 11
180.772112
 21
202.623927
 31
0.0
100
AcDbText
  0
TEXT
  5
197
100
AcDbEntity
  8
0
 62
     7
100
AcDbText
 10
175.147112
 20
199.598927
 30
0.0
 40
2.5
  1
110
 41
0.7695
  7
FontTableH_0
 72
     5
 11
180.772112
 21
199.598927
 31
0.0
100
AcDbText
  0
TEXT
  5
198
100
AcDbEntity
  8
0
 62
     7
100
AcDbText
 10
175.147112
 20
196.573927
 30
0.0
 40
2.5
  1
110
 41
0.7695
  7
FontTableH_0
 72
     5
 11
180.772112
 21
196.573927
 31
0.0
100
AcDbText
  0
TEXT
  5
199
100
AcDbEntity
  8
0
 62
     7
100
AcDbText
 10
175.147112
 20
193.548927
 30
0.0
 40
2.5
  1
110
 41
0.7695
  7
FontTableH_0
 72
     5
 11
180.772112
 21
193.548927
 31
0.0
100
AcDbText
  0
TEXT
  5
19A
100
AcDbEntity
  8
0
 62
     7
100
AcDbText
 10
175.147112
 20
190.523927
 30
0.0
 40
2.5
  1
120
 41
0.7695
  7
FontTableH_0
 72
     5
 11
180.772112
 21
190.523927
 31
0.0
100
AcDbText
  0
TEXT
  5
19B
100
AcDbEntity
  8
0
 62
     7
100
AcDbText
 10
175.147112
 20
187.498927
 30
0.0
 40
2.5
  1
120
 41
0.7695
  7
FontTableH_0
 72
     5
 11
180.772112
 21
187.498927
 31
0.0
100
AcDbText
  0
TEXT
  5
19C
100
AcDbEntity
  8
0
 62
     7
100
AcDbText
 10
175.147112
 20
184.473927
 30
0.0
 40
2.5
  1
120
 41
0.7695
  7
FontTableH_0
 72
     5
 11
180.772112
 21
184.473927
 31
0.0
100
AcDbText
  0
TEXT
  5
19D
100
AcDbEntity
  8
0
 62
     7
100
AcDbText
 10
175.147112
 20
181.448927
 30
0.0
 40
2.5
  1
120
 41
0.7695
  7
FontTableH_0
 72
     5
 11
180.772112
 21
181.448927
 31
0.0
100
AcDbText
  0
TEXT
  5
19E
100
AcDbEntity
  8
0
 62
     7
100
AcDbText
 10
175.147112
 20
178.423927
 30
0.0
 40
2.5
  1
120
 41
0.7695
  7
FontTableH_0
 72
     5
 11
180.772112
 21
178.423927
 31
0.0
100
AcDbText
  0
TEXT
  5
19F
100
AcDbEntity
  8
0
 62
     7
100
AcDbText
 10
175.147112
 20
175.398927
 30
0.0
 40
2.5
  1
130
 41
0.7695
  7
FontTableH_0
 72
     5
 11
180.772112
 21
175.398927
 31
0.0
100
AcDbText
  0
TEXT
  5
1A0
100
AcDbEntity
  8
0
 62
     7
100
AcDbText
 10
175.147112
 20
172.373927
 30
0.0
 40
2.5
  1
130
 41
0.7695
  7
FontTableH_0
 72
     5
 11
180.772112
 21
172.373927
 31
0.0
100
AcDbText
  0
TEXT
  5
1A1
100
AcDbEntity
  8
0
 62
     7
100
AcDbText
 10
175.147112
 20
169.348927
 30
0.0
 40
2.5
  1
130
 41
0.7695
  7
FontTableH_0
 72
     5
 11
180.772112
 21
169.348927
 31
0.0
100
AcDbText
  0
TEXT
  5
1A2
100
AcDbEntity
  8
0
 62
     7
100
AcDbText
 10
175.147112
 20
166.323927
 30
0.0
 40
2.5
  1
130
 41
0.7695
  7
FontTableH_0
 72
     5
 11
180.772112
 21
166.323927
 31
0.0
100
AcDbText
  0
TEXT
  5
1A3
100
AcDbEntity
  8
0
 62
     7
100
AcDbText
 10
175.147112
 20
163.298927
 30
0.0
 40
2.5
  1
130
 41
0.7695
  7
FontTableH_0
 72
     5
 11
180.772112
 21
163.298927
 31
0.0
100
AcDbText
  0
TEXT
  5
1A4
100
AcDbEntity
  8
0
 62
     7
100
AcDbText
 10
175.147112
 20
160.273927
 30
0.0
 40
2.5
  1
130
 41
0.7695
  7
FontTableH_0
 72
     5
 11
180.772112
 21
160.273927
 31
0.0
100
AcDbText
  0
TEXT
  5
1A5
100
AcDbEntity
  8
0
 62
     7
100
AcDbText
 10
175.147112
 20
157.248927
 30
0.0
 40
2.5
  1
140
 41
0.7695
  7
FontTableH_0
 72
     5
 11
180.772112
 21
157.248927
 31
0.0
100
AcDbText
  0
TEXT
  5
1A6
100
AcDbEntity
  8
0
 62
     7
100
AcDbText
 10
175.147112
 20
154.223927
 30
0.0
 40
2.5
  1
140
 41
0.7695
  7
FontTableH_0
 72
     5
 11
180.772112
 21
154.223927
 31
0.0
100
AcDbText
  0
TEXT
  5
1A7
100
AcDbEntity
  8
0
 62
     7
100
AcDbText
 10
175.147112
 20
151.198927
 30
0.0
 40
2.5
  1
140
 41
0.7695
  7
FontTableH_0
 72
     5
 11
180.772112
 21
151.198927
 31
0.0
100
AcDbText
  0
TEXT
  5
1A8
100
AcDbEntity
  8
0
 62
     7
100
AcDbText
 10
175.147112
 20
148.173927
 30
0.0
 40
2.5
  1
140
 41
0.7695
  7
FontTableH_0
 72
     5
 11
180.772112
 21
148.173927
 31
0.0
100
AcDbText
  0
TEXT
  5
1A9
100
AcDbEntity
  8
0
 62
     7
100
AcDbText
 10
175.147112
 20
145.148927
 30
0.0
 40
2.5
  1
140
 41
0.7695
  7
FontTableH_0
 72
     5
 11
180.772112
 21
145.148927
 31
0.0
100
AcDbText
  0
TEXT
  5
1AA
100
AcDbEntity
  8
0
 62
     7
100
AcDbText
 10
175.147112
 20
142.123927
 30
0.0
 40
2.5
  1
140
 41
0.7695
  7
FontTableH_0
 72
     5
 11
180.772112
 21
142.123927
 31
0.0
100
AcDbText
  0
TEXT
  5
1AB
100
AcDbEntity
  8
0
 62
     7
100
AcDbText
 10
175.147112
 20
139.098927
 30
0.0
 40
2.5
  1
140
 41
0.7695
  7
FontTableH_0
 72
     5
 11
180.772112
 21
139.098927
 31
0.0
100
AcDbText
  0
TEXT
  5
1AC
100
AcDbEntity
  8
0
 62
     7
100
AcDbText
 10
175.147112
 20
136.073928
 30
0.0
 40
2.5
  1
140
 41
0.7695
  7
FontTableH_0
 72
     5
 11
180.772112
 21
136.073928
 31
0.0
100
AcDbText
  0
TEXT
  5
1AD
100
AcDbEntity
  8
0
 62
     7
100
AcDbText
 10
175.147112
 20
133.048928
 30
0.0
 40
2.5
  1
140
 41
0.7695
  7
FontTableH_0
 72
     5
 11
180.772112
 21
133.048928
 31
0.0
100
AcDbText
  0
TEXT
  5
1AE
100
AcDbEntity
  8
0
 62
     7
100
AcDbText
 10
175.147112
 20
130.023928
 30
0.0
 40
2.5
  1
140
 41
0.7695
  7
FontTableH_0
 72
     5
 11
180.772112
 21
130.023928
 31
0.0
100
AcDbText
  0
TEXT
  5
1AF
100
AcDbEntity
  8
0
 62
     7
100
AcDbText
 10
175.147112
 20
126.998928
 30
0.0
 40
2.5
  1
140
 41
0.7695
  7
FontTableH_0
 72
     5
 11
180.772112
 21
126.998928
 31
0.0
100
AcDbText
  0
TEXT
  5
1B0
100
AcDbEntity
  8
0
 62
     7
100
AcDbText
 10
175.147112
 20
123.973928
 30
0.0
 40
2.5
  1
140
 41
0.7695
  7
FontTableH_0
 72
     5
 11
180.772112
 21
123.973928
 31
0.0
100
AcDbText
  0
TEXT
  5
1B1
100
AcDbEntity
  8
0
 62
     7
100
AcDbText
 10
175.147112
 20
120.948928
 30
0.0
 40
2.5
  1
140
 41
0.7695
  7
FontTableH_0
 72
     5
 11
180.772112
 21
120.948928
 31
0.0
100
AcDbText
  0
TEXT
  5
1B2
100
AcDbEntity
  8
0
 62
     7
100
AcDbText
 10
175.147112
 20
117.923928
 30
0.0
 40
2.5
  1
140
 41
0.7695
  7
FontTableH_0
 72
     5
 11
180.772112
 21
117.923928
 31
0.0
100
AcDbText
  0
TEXT
  5
1B3
100
AcDbEntity
  8
0
 62
     7
100
AcDbText
 10
175.147112
 20
114.898928
 30
0.0
 40
2.5
  1
140
 41
0.7695
  7
FontTableH_0
 72
     5
 11
180.772112
 21
114.898928
 31
0.0
100
AcDbText
  0
TEXT
  5
1B4
100
AcDbEntity
  8
0
 62
     7
100
AcDbText
 10
175.147112
 20
111.873928
 30
0.0
 40
2.5
  1
140
 41
0.7695
  7
FontTableH_0
 72
     5
 11
180.772112
 21
111.873928
 31
0.0
100
AcDbText
  0
TEXT
  5
1B5
100
AcDbEntity
  8
0
 62
     7
100
AcDbText
 10
175.147112
 20
108.848928
 30
0.0
 40
2.5
  1
140
 41
0.7695
  7
FontTableH_0
 72
     5
 11
180.772112
 21
108.848928
 31
0.0
100
AcDbText
  0
TEXT
  5
1B6
100
AcDbEntity
  8
0
 62
     7
100
AcDbText
 10
175.147112
 20
105.823928
 30
0.0
 40
2.5
  1
140
 41
0.7695
  7
FontTableH_0
 72
     5
 11
180.772112
 21
105.823928
 31
0.0
100
AcDbText
  0
TEXT
  5
1B7
100
AcDbEntity
  8
0
 62
     7
100
AcDbText
 10
175.147112
 20
102.798928
 30
0.0
 40
2.5
  1
140
 41
0.7695
  7
FontTableH_0
 72
     5
 11
180.772112
 21
102.798928
 31
0.0
100
AcDbText
  0
TEXT
  5
1B8
100
AcDbEntity
  8
0
 62
     7
100
AcDbText
 10
175.147112
 20
99.773928
 30
0.0
 40
2.5
  1
140
 41
0.7695
  7
FontTableH_0
 72
     5
 11
180.772112
 21
99.773928
 31
0.0
100
AcDbText
  0
TEXT
  5
1B9
100
AcDbEntity
  8
0
 62
     7
100
AcDbText
 10
175.147112
 20
96.748928
 30
0.0
 40
2.5
  1
140
 41
0.7695
  7
FontTableH_0
 72
     5
 11
180.772112
 21
96.748928
 31
0.0
100
AcDbText
  0
TEXT
  5
1BA
100
AcDbEntity
  8
0
 62
     7
100
AcDbText
 10
175.147112
 20
93.723928
 30
0.0
 40
2.5
  1
150
 41
0.7695
  7
FontTableH_0
 72
     5
 11
180.772112
 21
93.723928
 31
0.0
100
AcDbText
  0
TEXT
  5
1BB
100
AcDbEntity
  8
0
 62
     7
100
AcDbText
 10
175.147112
 20
90.698928
 30
0.0
 40
2.5
  1
150
 41
0.7695
  7
FontTableH_0
 72
     5
 11
180.772112
 21
90.698928
 31
0.0
100
AcDbText
  0
TEXT
  5
1BC
100
AcDbEntity
  8
0
 62
     7
100
AcDbText
 10
175.147112
 20
87.673928
 30
0.0
 40
2.5
  1
150
 41
0.7695
  7
FontTableH_0
 72
     5
 11
180.772112
 21
87.673928
 31
0.0
100
AcDbText
  0
TEXT
  5
1BD
100
AcDbEntity
  8
0
 62
     7
100
AcDbText
 10
175.147112
 20
84.648928
 30
0.0
 40
2.5
  1
150
 41
0.7695
  7
FontTableH_0
 72
     5
 11
180.772112
 21
84.648928
 31
0.0
100
AcDbText
  0
TEXT
  5
1BE
100
AcDbEntity
  8
0
 62
     7
100
AcDbText
 10
175.147112
 20
81.623928
 30
0.0
 40
2.5
  1
150
 41
0.7695
  7
FontTableH_0
 72
     5
 11
180.772112
 21
81.623928
 31
0.0
100
AcDbText
  0
TEXT
  5
1BF
100
AcDbEntity
  8
0
 62
     7
100
AcDbText
 10
175.147112
 20
78.598928
 30
0.0
 40
2.5
  1
150
 41
0.7695
  7
FontTableH_0
 72
     5
 11
180.772112
 21
78.598928
 31
0.0
100
AcDbText
  0
TEXT
  5
1C0
100
AcDbEntity
  8
0
 62
     7
100
AcDbText
 10
175.147112
 20
75.573928
 30
0.0
 40
2.5
  1
150
 41
0.7695
  7
FontTableH_0
 72
     5
 11
180.772112
 21
75.573928
 31
0.0
100
AcDbText
  0
TEXT
  5
1C1
100
AcDbEntity
  8
0
 62
     7
100
AcDbText
 10
175.147112
 20
72.548928
 30
0.0
 40
2.5
  1
150
 41
0.7695
  7
FontTableH_0
 72
     5
 11
180.772112
 21
72.548928
 31
0.0
100
AcDbText
  0
TEXT
  5
1C2
100
AcDbEntity
  8
0
 62
     7
100
AcDbText
 10
175.147112
 20
69.523928
 30
0.0
 40
2.5
  1
150
 41
0.7695
  7
FontTableH_0
 72
     5
 11
180.772112
 21
69.523928
 31
0.0
100
AcDbText
  0
TEXT
  5
1C3
100
AcDbEntity
  8
0
 62
     7
100
AcDbText
 10
188.347108
 20
223.798927
 30
0.0
 40
2.5
  1
100
 41
0.7695
  7
FontTableH_0
 72
     5
 11
193.972108
 21
223.798927
 31
0.0
100
AcDbText
  0
TEXT
  5
1C4
100
AcDbEntity
  8
0
 62
     7
100
AcDbText
 10
189.667108
 20
220.773927
 30
0.0
 40
2.5
  1
80
 41
0.7695
  7
FontTableH_0
 72
     5
 11
193.417108
 21
220.773927
 31
0.0
100
AcDbText
  0
TEXT
  5
1C5
100
AcDbEntity
  8
0
 62
     7
100
AcDbText
 10
189.667108
 20
217.748927
 30
0.0
 40
2.5
  1
80
 41
0.7695
  7
FontTableH_0
 72
     5
 11
193.417108
 21
217.748927
 31
0.0
100
AcDbText
  0
TEXT
  5
1C6
100
AcDbEntity
  8
0
 62
     7
100
AcDbText
 10
188.347108
 20
214.723927
 30
0.0
 40
2.5
  1
100
 41
0.7695
  7
FontTableH_0
 72
     5
 11
193.972108
 21
214.723927
 31
0.0
100
AcDbText
  0
TEXT
  5
1C7
100
AcDbEntity
  8
0
 62
     7
100
AcDbText
 10
188.347108
 20
211.698927
 30
0.0
 40
2.5
  1
100
 41
0.7695
  7
FontTableH_0
 72
     5
 11
193.972108
 21
211.698927
 31
0.0
100
AcDbText
  0
TEXT
  5
1C8
100
AcDbEntity
  8
0
 62
     7
100
AcDbText
 10
189.667108
 20
208.673927
 30
0.0
 40
2.5
  1
80
 41
0.7695
  7
FontTableH_0
 72
     5
 11
193.417108
 21
208.673927
 31
0.0
100
AcDbText
  0
TEXT
  5
1C9
100
AcDbEntity
  8
0
 62
     7
100
AcDbText
 10
189.667108
 20
205.648927
 30
0.0
 40
2.5
  1
80
 41
0.7695
  7
FontTableH_0
 72
     5
 11
193.417108
 21
205.648927
 31
0.0
100
AcDbText
  0
TEXT
  5
1CA
100
AcDbEntity
  8
0
 62
     7
100
AcDbText
 10
188.347108
 20
202.623927
 30
0.0
 40
2.5
  1
110
 41
0.7695
  7
FontTableH_0
 72
     5
 11
193.972108
 21
202.623927
 31
0.0
100
AcDbText
  0
TEXT
  5
1CB
100
AcDbEntity
  8
0
 62
     7
100
AcDbText
 10
188.347108
 20
199.598927
 30
0.0
 40
2.5
  1
100
 41
0.7695
  7
FontTableH_0
 72
     5
 11
193.972108
 21
199.598927
 31
0.0
100
AcDbText
  0
TEXT
  5
1CC
100
AcDbEntity
  8
0
 62
     7
100
AcDbText
 10
188.347108
 20
196.573927
 30
0.0
 40
2.5
  1
100
 41
0.7695
  7
FontTableH_0
 72
     5
 11
193.972108
 21
196.573927
 31
0.0
100
AcDbText
  0
TEXT
  5
1CD
100
AcDbEntity
  8
0
 62
     7
100
AcDbText
 10
189.667108
 20
193.548927
 30
0.0
 40
2.5
  1
80
 41
0.7695
  7
FontTableH_0
 72
     5
 11
193.417108
 21
193.548927
 31
0.0
100
AcDbText
  0
TEXT
  5
1CE
100
AcDbEntity
  8
0
 62
     7
100
AcDbText
 10
188.347108
 20
190.523927
 30
0.0
 40
2.5
  1
120
 41
0.7695
  7
FontTableH_0
 72
     5
 11
193.972108
 21
190.523927
 31
0.0
100
AcDbText
  0
TEXT
  5
1CF
100
AcDbEntity
  8
0
 62
     7
100
AcDbText
 10
188.347108
 20
187.498927
 30
0.0
 40
2.5
  1
110
 41
0.7695
  7
FontTableH_0
 72
     5
 11
193.972108
 21
187.498927
 31
0.0
100
AcDbText
  0
TEXT
  5
1D0
100
AcDbEntity
  8
0
 62
     7
100
AcDbText
 10
188.347108
 20
184.473927
 30
0.0
 40
2.5
  1
100
 41
0.7695
  7
FontTableH_0
 72
     5
 11
193.972108
 21
184.473927
 31
0.0
100
AcDbText
  0
TEXT
  5
1D1
100
AcDbEntity
  8
0
 62
     7
100
AcDbText
 10
188.347108
 20
181.448927
 30
0.0
 40
2.5
  1
100
 41
0.7695
  7
FontTableH_0
 72
     5
 11
193.972108
 21
181.448927
 31
0.0
100
AcDbText
  0
TEXT
  5
1D2
100
AcDbEntity
  8
0
 62
     7
100
AcDbText
 10
189.667108
 20
178.423927
 30
0.0
 40
2.5
  1
80
 41
0.7695
  7
FontTableH_0
 72
     5
 11
193.417108
 21
178.423927
 31
0.0
100
AcDbText
  0
TEXT
  5
1D3
100
AcDbEntity
  8
0
 62
     7
100
AcDbText
 10
188.347108
 20
175.398927
 30
0.0
 40
2.5
  1
130
 41
0.7695
  7
FontTableH_0
 72
     5
 11
193.972108
 21
175.398927
 31
0.0
100
AcDbText
  0
TEXT
  5
1D4
100
AcDbEntity
  8
0
 62
     7
100
AcDbText
 10
188.347108
 20
172.373927
 30
0.0
 40
2.5
  1
120
 41
0.7695
  7
FontTableH_0
 72
     5
 11
193.972108
 21
172.373927
 31
0.0
100
AcDbText
  0
TEXT
  5
1D5
100
AcDbEntity
  8
0
 62
     7
100
AcDbText
 10
188.347108
 20
169.348927
 30
0.0
 40
2.5
  1
110
 41
0.7695
  7
FontTableH_0
 72
     5
 11
193.972108
 21
169.348927
 31
0.0
100
AcDbText
  0
TEXT
  5
1D6
100
AcDbEntity
  8
0
 62
     7
100
AcDbText
 10
188.347108
 20
166.323927
 30
0.0
 40
2.5
  1
100
 41
0.7695
  7
FontTableH_0
 72
     5
 11
193.972108
 21
166.323927
 31
0.0
100
AcDbText
  0
TEXT
  5
1D7
100
AcDbEntity
  8
0
 62
     7
100
AcDbText
 10
188.347108
 20
163.298927
 30
0.0
 40
2.5
  1
100
 41
0.7695
  7
FontTableH_0
 72
     5
 11
193.972108
 21
163.298927
 31
0.0
100
AcDbText
  0
TEXT
  5
1D8
100
AcDbEntity
  8
0
 62
     7
100
AcDbText
 10
189.667108
 20
160.273927
 30
0.0
 40
2.5
  1
80
 41
0.7695
  7
FontTableH_0
 72
     5
 11
193.417108
 21
160.273927
 31
0.0
100
AcDbText
  0
TEXT
  5
1D9
100
AcDbEntity
  8
0
 62
     7
100
AcDbText
 10
188.347108
 20
157.248927
 30
0.0
 40
2.5
  1
140
 41
0.7695
  7
FontTableH_0
 72
     5
 11
193.972108
 21
157.248927
 31
0.0
100
AcDbText
  0
TEXT
  5
1DA
100
AcDbEntity
  8
0
 62
     7
100
AcDbText
 10
188.347108
 20
154.223927
 30
0.0
 40
2.5
  1
130
 41
0.7695
  7
FontTableH_0
 72
     5
 11
193.972108
 21
154.223927
 31
0.0
100
AcDbText
  0
TEXT
  5
1DB
100
AcDbEntity
  8
0
 62
     7
100
AcDbText
 10
188.347108
 20
151.198927
 30
0.0
 40
2.5
  1
120
 41
0.7695
  7
FontTableH_0
 72
     5
 11
193.972108
 21
151.198927
 31
0.0
100
AcDbText
  0
TEXT
  5
1DC
100
AcDbEntity
  8
0
 62
     7
100
AcDbText
 10
188.347108
 20
148.173927
 30
0.0
 40
2.5
  1
110
 41
0.7695
  7
FontTableH_0
 72
     5
 11
193.972108
 21
148.173927
 31
0.0
100
AcDbText
  0
TEXT
  5
1DD
100
AcDbEntity
  8
0
 62
     7
100
AcDbText
 10
188.347108
 20
145.148927
 30
0.0
 40
2.5
  1
100
 41
0.7695
  7
FontTableH_0
 72
     5
 11
193.972108
 21
145.148927
 31
0.0
100
AcDbText
  0
TEXT
  5
1DE
100
AcDbEntity
  8
0
 62
     7
100
AcDbText
 10
188.347108
 20
142.123927
 30
0.0
 40
2.5
  1
100
 41
0.7695
  7
FontTableH_0
 72
     5
 11
193.972108
 21
142.123927
 31
0.0
100
AcDbText
  0
TEXT
  5
1DF
100
AcDbEntity
  8
0
 62
     7
100
AcDbText
 10
188.347108
 20
139.098927
 30
0.0
 40
2.5
  1
140
 41
0.7695
  7
FontTableH_0
 72
     5
 11
193.972108
 21
139.098927
 31
0.0
100
AcDbText
  0
TEXT
  5
1E0
100
AcDbEntity
  8
0
 62
     7
100
AcDbText
 10
188.347108
 20
136.073928
 30
0.0
 40
2.5
  1
140
 41
0.7695
  7
FontTableH_0
 72
     5
 11
193.972108
 21
136.073928
 31
0.0
100
AcDbText
  0
TEXT
  5
1E1
100
AcDbEntity
  8
0
 62
     7
100
AcDbText
 10
188.347108
 20
133.048928
 30
0.0
 40
2.5
  1
130
 41
0.7695
  7
FontTableH_0
 72
     5
 11
193.972108
 21
133.048928
 31
0.0
100
AcDbText
  0
TEXT
  5
1E2
100
AcDbEntity
  8
0
 62
     7
100
AcDbText
 10
188.347108
 20
123.973928
 30
0.0
 40
2.5
  1
100
 41
0.7695
  7
FontTableH_0
 72
     5
 11
193.972108
 21
123.973928
 31
0.0
100
AcDbText
  0
TEXT
  5
1E3
100
AcDbEntity
  8
0
 62
     7
100
AcDbText
 10
188.347108
 20
117.923928
 30
0.0
 40
2.5
  1
140
 41
0.7695
  7
FontTableH_0
 72
     5
 11
193.972108
 21
117.923928
 31
0.0
100
AcDbText
  0
TEXT
  5
1E4
100
AcDbEntity
  8
0
 62
     7
100
AcDbText
 10
188.347108
 20
114.898928
 30
0.0
 40
2.5
  1
140
 41
0.7695
  7
FontTableH_0
 72
     5
 11
193.972108
 21
114.898928
 31
0.0
100
AcDbText
  0
TEXT
  5
1E5
100
AcDbEntity
  8
0
 62
     7
100
AcDbText
 10
188.347108
 20
99.773928
 30
0.0
 40
2.5
  1
100
 41
0.7695
  7
FontTableH_0
 72
     5
 11
193.972108
 21
99.773928
 31
0.0
100
AcDbText
  0
TEXT
  5
1E6
100
AcDbEntity
  8
0
 62
     7
100
AcDbText
 10
188.347108
 20
96.748928
 30
0.0
 40
2.5
  1
100
 41
0.7695
  7
FontTableH_0
 72
     5
 11
193.972108
 21
96.748928
 31
0.0
100
AcDbText
  0
TEXT
  5
1E7
100
AcDbEntity
  8
0
 62
     7
100
AcDbText
 10
188.347108
 20
102.798928
 30
0.0
 40
2.5
  1
110
 41
0.7695
  7
FontTableH_0
 72
     5
 11
193.972108
 21
102.798928
 31
0.0
100
AcDbText
  0
TEXT
  5
1E8
100
AcDbEntity
  8
0
 62
     7
100
AcDbText
 10
188.347108
 20
105.823928
 30
0.0
 40
2.5
  1
120
 41
0.7695
  7
FontTableH_0
 72
     5
 11
193.972108
 21
105.823928
 31
0.0
100
AcDbText
  0
TEXT
  5
1E9
100
AcDbEntity
  8
0
 62
     7
100
AcDbText
 10
188.347108
 20
120.948928
 30
0.0
 40
2.5
  1
100
 41
0.7695
  7
FontTableH_0
 72
     5
 11
193.972108
 21
120.948928
 31
0.0
100
AcDbText
  0
TEXT
  5
1EA
100
AcDbEntity
  8
0
 62
     7
100
AcDbText
 10
188.347108
 20
126.998928
 30
0.0
 40
2.5
  1
110
 41
0.7695
  7
FontTableH_0
 72
     5
 11
193.972108
 21
126.998928
 31
0.0
100
AcDbText
  0
TEXT
  5
1EB
100
AcDbEntity
  8
0
 62
     7
100
AcDbText
 10
188.347108
 20
130.023928
 30
0.0
 40
2.5
  1
120
 41
0.7695
  7
FontTableH_0
 72
     5
 11
193.972108
 21
130.023928
 31
0.0
100
AcDbText
  0
TEXT
  5
1EC
100
AcDbEntity
  8
0
 62
     7
100
AcDbText
 10
188.347108
 20
111.873928
 30
0.0
 40
2.5
  1
140
 41
0.7695
  7
FontTableH_0
 72
     5
 11
193.972108
 21
111.873928
 31
0.0
100
AcDbText
  0
TEXT
  5
1ED
100
AcDbEntity
  8
0
 62
     7
100
AcDbText
 10
188.347108
 20
108.848928
 30
0.0
 40
2.5
  1
130
 41
0.7695
  7
FontTableH_0
 72
     5
 11
193.972108
 21
108.848928
 31
0.0
100
AcDbText
  0
TEXT
  5
1EE
100
AcDbEntity
  8
0
 62
     7
100
AcDbText
 10
188.347108
 20
93.723928
 30
0.0
 40
2.5
  1
150
 41
0.7695
  7
FontTableH_0
 72
     5
 11
193.972108
 21
93.723928
 31
0.0
100
AcDbText
  0
TEXT
  5
1EF
100
AcDbEntity
  8
0
 62
     7
100
AcDbText
 10
188.347108
 20
90.698928
 30
0.0
 40
2.5
  1
140
 41
0.7695
  7
FontTableH_0
 72
     5
 11
193.972108
 21
90.698928
 31
0.0
100
AcDbText
  0
TEXT
  5
1F0
100
AcDbEntity
  8
0
 62
     7
100
AcDbText
 10
188.347108
 20
87.673928
 30
0.0
 40
2.5
  1
140
 41
0.7695
  7
FontTableH_0
 72
     5
 11
193.972108
 21
87.673928
 31
0.0
100
AcDbText
  0
TEXT
  5
1F1
100
AcDbEntity
  8
0
 62
     7
100
AcDbText
 10
188.347108
 20
84.648928
 30
0.0
 40
2.5
  1
140
 41
0.7695
  7
FontTableH_0
 72
     5
 11
193.972108
 21
84.648928
 31
0.0
100
AcDbText
  0
TEXT
  5
1F2
100
AcDbEntity
  8
0
 62
     7
100
AcDbText
 10
188.347108
 20
81.623928
 30
0.0
 40
2.5
  1
130
 41
0.7695
  7
FontTableH_0
 72
     5
 11
193.972108
 21
81.623928
 31
0.0
100
AcDbText
  0
TEXT
  5
1F3
100
AcDbEntity
  8
0
 62
     7
100
AcDbText
 10
188.347108
 20
78.598928
 30
0.0
 40
2.5
  1
120
 41
0.7695
  7
FontTableH_0
 72
     5
 11
193.972108
 21
78.598928
 31
0.0
100
AcDbText
  0
TEXT
  5
1F4
100
AcDbEntity
  8
0
 62
     7
100
AcDbText
 10
188.347108
 20
75.573928
 30
0.0
 40
2.5
  1
110
 41
0.7695
  7
FontTableH_0
 72
     5
 11
193.972108
 21
75.573928
 31
0.0
100
AcDbText
  0
TEXT
  5
1F5
100
AcDbEntity
  8
0
 62
     7
100
AcDbText
 10
188.347108
 20
72.548928
 30
0.0
 40
2.5
  1
100
 41
0.7695
  7
FontTableH_0
 72
     5
 11
193.972108
 21
72.548928
 31
0.0
100
AcDbText
  0
TEXT
  5
1F6
100
AcDbEntity
  8
0
 62
     7
100
AcDbText
 10
188.347108
 20
69.523928
 30
0.0
 40
2.5
  1
100
 41
0.7695
  7
FontTableH_0
 72
     5
 11
193.972108
 21
69.523928
 31
0.0
100
AcDbText
  0
TEXT
  5
1F7
100
AcDbEntity
  8
0
 62
     7
100
AcDbText
 10
201.547108
 20
223.798927
 30
0.0
 40
2.5
  1
2.5
 41
0.7695
  7
FontTableH_0
 72
     5
 11
207.172108
 21
223.798927
 31
0.0
100
AcDbText
  0
TEXT
  5
1F8
100
AcDbEntity
  8
0
 62
     7
100
AcDbText
 10
201.547108
 20
220.773927
 30
0.0
 40
2.5
  1
2.5
 41
0.7695
  7
FontTableH_0
 72
     5
 11
207.172108
 21
220.773927
 31
0.0
100
AcDbText
  0
TEXT
  5
1F9
100
AcDbEntity
  8
0
 62
     7
100
AcDbText
 10
201.547108
 20
217.748927
 30
0.0
 40
2.5
  1
2.5
 41
0.7695
  7
FontTableH_0
 72
     5
 11
207.172108
 21
217.748927
 31
0.0
100
AcDbText
  0
TEXT
  5
1FA
100
AcDbEntity
  8
0
 62
     7
100
AcDbText
 10
201.547108
 20
214.723927
 30
0.0
 40
2.5
  1
2.5
 41
0.7695
  7
FontTableH_0
 72
     5
 11
207.172108
 21
214.723927
 31
0.0
100
AcDbText
  0
TEXT
  5
1FB
100
AcDbEntity
  8
0
 62
     7
100
AcDbText
 10
201.547108
 20
211.698927
 30
0.0
 40
2.5
  1
2.5
 41
0.7695
  7
FontTableH_0
 72
     5
 11
207.172108
 21
211.698927
 31
0.0
100
AcDbText
  0
TEXT
  5
1FC
100
AcDbEntity
  8
0
 62
     7
100
AcDbText
 10
201.547108
 20
208.673927
 30
0.0
 40
2.5
  1
2.5
 41
0.7695
  7
FontTableH_0
 72
     5
 11
207.172108
 21
208.673927
 31
0.0
100
AcDbText
  0
TEXT
  5
1FD
100
AcDbEntity
  8
0
 62
     7
100
AcDbText
 10
201.547108
 20
205.648927
 30
0.0
 40
2.5
  1
2.5
 41
0.7695
  7
FontTableH_0
 72
     5
 11
207.172108
 21
205.648927
 31
0.0
100
AcDbText
  0
TEXT
  5
1FE
100
AcDbEntity
  8
0
 62
     7
100
AcDbText
 10
201.547108
 20
202.623927
 30
0.0
 40
2.5
  1
3.0
 41
0.7695
  7
FontTableH_0
 72
     5
 11
207.172108
 21
202.623927
 31
0.0
100
AcDbText
  0
TEXT
  5
1FF
100
AcDbEntity
  8
0
 62
     7
100
AcDbText
 10
201.547108
 20
199.598927
 30
0.0
 40
2.5
  1
3.0
 41
0.7695
  7
FontTableH_0
 72
     5
 11
207.172108
 21
199.598927
 31
0.0
100
AcDbText
  0
TEXT
  5
200
100
AcDbEntity
  8
0
 62
     7
100
AcDbText
 10
201.547108
 20
193.548927
 30
0.0
 40
2.5
  1
3.0
 41
0.7695
  7
FontTableH_0
 72
     5
 11
207.172108
 21
193.548927
 31
0.0
100
AcDbText
  0
TEXT
  5
201
100
AcDbEntity
  8
0
 62
     7
100
AcDbText
 10
201.547108
 20
196.573927
 30
0.0
 40
2.5
  1
3.0
 41
0.7695
  7
FontTableH_0
 72
     5
 11
207.172108
 21
196.573927
 31
0.0
100
AcDbText
  0
TEXT
  5
202
100
AcDbEntity
  8
0
 62
     7
100
AcDbText
 10
201.547108
 20
190.523927
 30
0.0
 40
2.5
  1
3.0
 41
0.7695
  7
FontTableH_0
 72
     5
 11
207.172108
 21
190.523927
 31
0.0
100
AcDbText
  0
TEXT
  5
203
100
AcDbEntity
  8
0
 62
     7
100
AcDbText
 10
201.547108
 20
187.498927
 30
0.0
 40
2.5
  1
3.0
 41
0.7695
  7
FontTableH_0
 72
     5
 11
207.172108
 21
187.498927
 31
0.0
100
AcDbText
  0
TEXT
  5
204
100
AcDbEntity
  8
0
 62
     7
100
AcDbText
 10
201.547108
 20
184.473927
 30
0.0
 40
2.5
  1
3.0
 41
0.7695
  7
FontTableH_0
 72
     5
 11
207.172108
 21
184.473927
 31
0.0
100
AcDbText
  0
TEXT
  5
205
100
AcDbEntity
  8
0
 62
     7
100
AcDbText
 10
201.547108
 20
181.448927
 30
0.0
 40
2.5
  1
3.0
 41
0.7695
  7
FontTableH_0
 72
     5
 11
207.172108
 21
181.448927
 31
0.0
100
AcDbText
  0
TEXT
  5
206
100
AcDbEntity
  8
0
 62
     7
100
AcDbText
 10
201.547108
 20
178.423927
 30
0.0
 40
2.5
  1
3.0
 41
0.7695
  7
FontTableH_0
 72
     5
 11
207.172108
 21
178.423927
 31
0.0
100
AcDbText
  0
TEXT
  5
207
100
AcDbEntity
  8
0
 62
     7
100
AcDbText
 10
201.547108
 20
175.398927
 30
0.0
 40
2.5
  1
3.5
 41
0.7695
  7
FontTableH_0
 72
     5
 11
207.172108
 21
175.398927
 31
0.0
100
AcDbText
  0
TEXT
  5
208
100
AcDbEntity
  8
0
 62
     7
100
AcDbText
 10
201.547108
 20
172.373927
 30
0.0
 40
2.5
  1
3.5
 41
0.7695
  7
FontTableH_0
 72
     5
 11
207.172108
 21
172.373927
 31
0.0
100
AcDbText
  0
TEXT
  5
209
100
AcDbEntity
  8
0
 62
     7
100
AcDbText
 10
201.547108
 20
169.348927
 30
0.0
 40
2.5
  1
3.5
 41
0.7695
  7
FontTableH_0
 72
     5
 11
207.172108
 21
169.348927
 31
0.0
100
AcDbText
  0
TEXT
  5
20A
100
AcDbEntity
  8
0
 62
     7
100
AcDbText
 10
201.547108
 20
166.323927
 30
0.0
 40
2.5
  1
3.5
 41
0.7695
  7
FontTableH_0
 72
     5
 11
207.172108
 21
166.323927
 31
0.0
100
AcDbText
  0
TEXT
  5
20B
100
AcDbEntity
  8
0
 62
     7
100
AcDbText
 10
201.547108
 20
163.298927
 30
0.0
 40
2.5
  1
3.5
 41
0.7695
  7
FontTableH_0
 72
     5
 11
207.172108
 21
163.298927
 31
0.0
100
AcDbText
  0
TEXT
  5
20C
100
AcDbEntity
  8
0
 62
     7
100
AcDbText
 10
201.547108
 20
160.273927
 30
0.0
 40
2.5
  1
3.5
 41
0.7695
  7
FontTableH_0
 72
     5
 11
207.172108
 21
160.273927
 31
0.0
100
AcDbText
  0
TEXT
  5
20D
100
AcDbEntity
  8
0
 62
     7
100
AcDbText
 10
201.547108
 20
157.248927
 30
0.0
 40
2.5
  1
4.0
 41
0.7695
  7
FontTableH_0
 72
     5
 11
207.172108
 21
157.248927
 31
0.0
100
AcDbText
  0
TEXT
  5
20E
100
AcDbEntity
  8
0
 62
     7
100
AcDbText
 10
201.547108
 20
154.223927
 30
0.0
 40
2.5
  1
4.0
 41
0.7695
  7
FontTableH_0
 72
     5
 11
207.172108
 21
154.223927
 31
0.0
100
AcDbText
  0
TEXT
  5
20F
100
AcDbEntity
  8
0
 62
     7
100
AcDbText
 10
201.547108
 20
151.198927
 30
0.0
 40
2.5
  1
4.0
 41
0.7695
  7
FontTableH_0
 72
     5
 11
207.172108
 21
151.198927
 31
0.0
100
AcDbText
  0
TEXT
  5
210
100
AcDbEntity
  8
0
 62
     7
100
AcDbText
 10
201.547108
 20
148.173927
 30
0.0
 40
2.5
  1
4.0
 41
0.7695
  7
FontTableH_0
 72
     5
 11
207.172108
 21
148.173927
 31
0.0
100
AcDbText
  0
TEXT
  5
211
100
AcDbEntity
  8
0
 62
     7
100
AcDbText
 10
201.547108
 20
145.148927
 30
0.0
 40
2.5
  1
4.0
 41
0.7695
  7
FontTableH_0
 72
     5
 11
207.172108
 21
145.148927
 31
0.0
100
AcDbText
  0
TEXT
  5
212
100
AcDbEntity
  8
0
 62
     7
100
AcDbText
 10
201.547108
 20
142.123927
 30
0.0
 40
2.5
  1
4.0
 41
0.7695
  7
FontTableH_0
 72
     5
 11
207.172108
 21
142.123927
 31
0.0
100
AcDbText
  0
TEXT
  5
213
100
AcDbEntity
  8
0
 62
     7
100
AcDbText
 10
201.547108
 20
139.098927
 30
0.0
 40
2.5
  1
4.5
 41
0.7695
  7
FontTableH_0
 72
     5
 11
207.172108
 21
139.098927
 31
0.0
100
AcDbText
  0
TEXT
  5
214
100
AcDbEntity
  8
0
 62
     7
100
AcDbText
 10
201.547108
 20
136.073928
 30
0.0
 40
2.5
  1
4.5
 41
0.7695
  7
FontTableH_0
 72
     5
 11
207.172108
 21
136.073928
 31
0.0
100
AcDbText
  0
TEXT
  5
215
100
AcDbEntity
  8
0
 62
     7
100
AcDbText
 10
201.547108
 20
133.048928
 30
0.0
 40
2.5
  1
4.5
 41
0.7695
  7
FontTableH_0
 72
     5
 11
207.172108
 21
133.048928
 31
0.0
100
AcDbText
  0
TEXT
  5
216
100
AcDbEntity
  8
0
 62
     7
100
AcDbText
 10
201.547108
 20
130.023928
 30
0.0
 40
2.5
  1
4.5
 41
0.7695
  7
FontTableH_0
 72
     5
 11
207.172108
 21
130.023928
 31
0.0
100
AcDbText
  0
TEXT
  5
217
100
AcDbEntity
  8
0
 62
     7
100
AcDbText
 10
201.547108
 20
126.998928
 30
0.0
 40
2.5
  1
4.5
 41
0.7695
  7
FontTableH_0
 72
     5
 11
207.172108
 21
126.998928
 31
0.0
100
AcDbText
  0
TEXT
  5
218
100
AcDbEntity
  8
0
 62
     7
100
AcDbText
 10
201.547108
 20
123.973928
 30
0.0
 40
2.5
  1
4.5
 41
0.7695
  7
FontTableH_0
 72
     5
 11
207.172108
 21
123.973928
 31
0.0
100
AcDbText
  0
TEXT
  5
219
100
AcDbEntity
  8
0
 62
     7
100
AcDbText
 10
201.547108
 20
120.948928
 30
0.0
 40
2.5
  1
4.5
 41
0.7695
  7
FontTableH_0
 72
     5
 11
207.172108
 21
120.948928
 31
0.0
100
AcDbText
  0
TEXT
  5
21A
100
AcDbEntity
  8
0
 62
     7
100
AcDbText
 10
201.547108
 20
117.923928
 30
0.0
 40
2.5
  1
5.0
 41
0.7695
  7
FontTableH_0
 72
     5
 11
207.172108
 21
117.923928
 31
0.0
100
AcDbText
  0
TEXT
  5
21B
100
AcDbEntity
  8
0
 62
     7
100
AcDbText
 10
201.547108
 20
114.898928
 30
0.0
 40
2.5
  1
5.0
 41
0.7695
  7
FontTableH_0
 72
     5
 11
207.172108
 21
114.898928
 31
0.0
100
AcDbText
  0
TEXT
  5
21C
100
AcDbEntity
  8
0
 62
     7
100
AcDbText
 10
201.547108
 20
111.873928
 30
0.0
 40
2.5
  1
5.0
 41
0.7695
  7
FontTableH_0
 72
     5
 11
207.172108
 21
111.873928
 31
0.0
100
AcDbText
  0
TEXT
  5
21D
100
AcDbEntity
  8
0
 62
     7
100
AcDbText
 10
201.547108
 20
108.848928
 30
0.0
 40
2.5
  1
5.0
 41
0.7695
  7
FontTableH_0
 72
     5
 11
207.172108
 21
108.848928
 31
0.0
100
AcDbText
  0
TEXT
  5
21E
100
AcDbEntity
  8
0
 62
     7
100
AcDbText
 10
201.547108
 20
105.823928
 30
0.0
 40
2.5
  1
5.0
 41
0.7695
  7
FontTableH_0
 72
     5
 11
207.172108
 21
105.823928
 31
0.0
100
AcDbText
  0
TEXT
  5
21F
100
AcDbEntity
  8
0
 62
     7
100
AcDbText
 10
201.547108
 20
102.798928
 30
0.0
 40
2.5
  1
5.0
 41
0.7695
  7
FontTableH_0
 72
     5
 11
207.172108
 21
102.798928
 31
0.0
100
AcDbText
  0
TEXT
  5
220
100
AcDbEntity
  8
0
 62
     7
100
AcDbText
 10
201.547108
 20
99.773928
 30
0.0
 40
2.5
  1
5.0
 41
0.7695
  7
FontTableH_0
 72
     5
 11
207.172108
 21
99.773928
 31
0.0
100
AcDbText
  0
TEXT
  5
221
100
AcDbEntity
  8
0
 62
     7
100
AcDbText
 10
201.547108
 20
96.748928
 30
0.0
 40
2.5
  1
5.0
 41
0.7695
  7
FontTableH_0
 72
     5
 11
207.172108
 21
96.748928
 31
0.0
100
AcDbText
  0
TEXT
  5
222
100
AcDbEntity
  8
0
 62
     7
100
AcDbText
 10
201.547108
 20
93.723928
 30
0.0
 40
2.5
  1
6.0
 41
0.7695
  7
FontTableH_0
 72
     5
 11
207.172108
 21
93.723928
 31
0.0
100
AcDbText
  0
TEXT
  5
223
100
AcDbEntity
  8
0
 62
     7
100
AcDbText
 10
201.547108
 20
90.698928
 30
0.0
 40
2.5
  1
6.0
 41
0.7695
  7
FontTableH_0
 72
     5
 11
207.172108
 21
90.698928
 31
0.0
100
AcDbText
  0
TEXT
  5
224
100
AcDbEntity
  8
0
 62
     7
100
AcDbText
 10
201.547108
 20
87.673928
 30
0.0
 40
2.5
  1
6.0
 41
0.7695
  7
FontTableH_0
 72
     5
 11
207.172108
 21
87.673928
 31
0.0
100
AcDbText
  0
TEXT
  5
225
100
AcDbEntity
  8
0
 62
     7
100
AcDbText
 10
201.547108
 20
84.648928
 30
0.0
 40
2.5
  1
6.0
 41
0.7695
  7
FontTableH_0
 72
     5
 11
207.172108
 21
84.648928
 31
0.0
100
AcDbText
  0
TEXT
  5
226
100
AcDbEntity
  8
0
 62
     7
100
AcDbText
 10
201.547108
 20
81.623928
 30
0.0
 40
2.5
  1
6.0
 41
0.7695
  7
FontTableH_0
 72
     5
 11
207.172108
 21
81.623928
 31
0.0
100
AcDbText
  0
TEXT
  5
227
100
AcDbEntity
  8
0
 62
     7
100
AcDbText
 10
201.547108
 20
78.598928
 30
0.0
 40
2.5
  1
6.0
 41
0.7695
  7
FontTableH_0
 72
     5
 11
207.172108
 21
78.598928
 31
0.0
100
AcDbText
  0
TEXT
  5
228
100
AcDbEntity
  8
0
 62
     7
100
AcDbText
 10
201.547108
 20
75.573928
 30
0.0
 40
2.5
  1
6.0
 41
0.7695
  7
FontTableH_0
 72
     5
 11
207.172108
 21
75.573928
 31
0.0
100
AcDbText
  0
TEXT
  5
229
100
AcDbEntity
  8
0
 62
     7
100
AcDbText
 10
201.547108
 20
72.548928
 30
0.0
 40
2.5
  1
6.0
 41
0.7695
  7
FontTableH_0
 72
     5
 11
207.172108
 21
72.548928
 31
0.0
100
AcDbText
  0
TEXT
  5
22A
100
AcDbEntity
  8
0
 62
     7
100
AcDbText
 10
201.547108
 20
69.523928
 30
0.0
 40
2.5
  1
6.0
 41
0.7695
  7
FontTableH_0
 72
     5
 11
207.172108
 21
69.523928
 31
0.0
100
AcDbText
  0
TEXT
  5
22B
100
AcDbEntity
  8
0
 62
     7
100
AcDbText
 10
214.747108
 20
223.798927
 30
0.0
 40
2.5
  1
2.5
 41
0.7695
  7
FontTableH_0
 72
     5
 11
220.372108
 21
223.798927
 31
0.0
100
AcDbText
  0
TEXT
  5
22C
100
AcDbEntity
  8
0
 62
     7
100
AcDbText
 10
214.747108
 20
220.773927
 30
0.0
 40
2.5
  1
4.1
 41
0.7695
  7
FontTableH_0
 72
     5
 11
220.372108
 21
220.773927
 31
0.0
100
AcDbText
  0
TEXT
  5
22D
100
AcDbEntity
  8
0
 62
     7
100
AcDbText
 10
214.747108
 20
217.748927
 30
0.0
 40
2.5
  1
3.0
 41
0.7695
  7
FontTableH_0
 72
     5
 11
220.372108
 21
217.748927
 31
0.0
100
AcDbText
  0
TEXT
  5
22E
100
AcDbEntity
  8
0
 62
     7
100
AcDbText
 10
214.747108
 20
214.723927
 30
0.0
 40
2.5
  1
2.5
 41
0.7695
  7
FontTableH_0
 72
     5
 11
220.372108
 21
214.723927
 31
0.0
100
AcDbText
  0
TEXT
  5
22F
100
AcDbEntity
  8
0
 62
     7
100
AcDbText
 10
214.747108
 20
211.698927
 30
0.0
 40
2.5
  1
2.5
 41
0.7695
  7
FontTableH_0
 72
     5
 11
220.372108
 21
211.698927
 31
0.0
100
AcDbText
  0
TEXT
  5
230
100
AcDbEntity
  8
0
 62
     7
100
AcDbText
 10
214.747108
 20
208.673927
 30
0.0
 40
2.5
  1
4.1
 41
0.7695
  7
FontTableH_0
 72
     5
 11
220.372108
 21
208.673927
 31
0.0
100
AcDbText
  0
TEXT
  5
231
100
AcDbEntity
  8
0
 62
     7
100
AcDbText
 10
214.747108
 20
205.648927
 30
0.0
 40
2.5
  1
3.0
 41
0.7695
  7
FontTableH_0
 72
     5
 11
220.372108
 21
205.648927
 31
0.0
100
AcDbText
  0
TEXT
  5
232
100
AcDbEntity
  8
0
 62
     7
100
AcDbText
 10
214.747108
 20
202.623927
 30
0.0
 40
2.5
  1
3.0
 41
0.7695
  7
FontTableH_0
 72
     5
 11
220.372108
 21
202.623927
 31
0.0
100
AcDbText
  0
TEXT
  5
233
100
AcDbEntity
  8
0
 62
     7
100
AcDbText
 10
214.747108
 20
199.598927
 30
0.0
 40
2.5
  1
2.5
 41
0.7695
  7
FontTableH_0
 72
     5
 11
220.372108
 21
199.598927
 31
0.0
100
AcDbText
  0
TEXT
  5
234
100
AcDbEntity
  8
0
 62
     7
100
AcDbText
 10
214.747108
 20
196.573927
 30
0.0
 40
2.5
  1
2.5
 41
0.7695
  7
FontTableH_0
 72
     5
 11
220.372108
 21
196.573927
 31
0.0
100
AcDbText
  0
TEXT
  5
235
100
AcDbEntity
  8
0
 62
     7
100
AcDbText
 10
214.747108
 20
193.548927
 30
0.0
 40
2.5
  1
4.1
 41
0.7695
  7
FontTableH_0
 72
     5
 11
220.372108
 21
193.548927
 31
0.0
100
AcDbText
  0
TEXT
  5
236
100
AcDbEntity
  8
0
 62
     7
100
AcDbText
 10
214.747108
 20
190.523927
 30
0.0
 40
2.5
  1
3.0
 41
0.7695
  7
FontTableH_0
 72
     5
 11
220.372108
 21
190.523927
 31
0.0
100
AcDbText
  0
TEXT
  5
237
100
AcDbEntity
  8
0
 62
     7
100
AcDbText
 10
214.747108
 20
187.498927
 30
0.0
 40
2.5
  1
3.0
 41
0.7695
  7
FontTableH_0
 72
     5
 11
220.372108
 21
187.498927
 31
0.0
100
AcDbText
  0
TEXT
  5
238
100
AcDbEntity
  8
0
 62
     7
100
AcDbText
 10
214.747108
 20
184.473927
 30
0.0
 40
2.5
  1
2.5
 41
0.7695
  7
FontTableH_0
 72
     5
 11
220.372108
 21
184.473927
 31
0.0
100
AcDbText
  0
TEXT
  5
239
100
AcDbEntity
  8
0
 62
     7
100
AcDbText
 10
214.747108
 20
181.448927
 30
0.0
 40
2.5
  1
2.5
 41
0.7695
  7
FontTableH_0
 72
     5
 11
220.372108
 21
181.448927
 31
0.0
100
AcDbText
  0
TEXT
  5
23A
100
AcDbEntity
  8
0
 62
     7
100
AcDbText
 10
214.747108
 20
178.423927
 30
0.0
 40
2.5
  1
4.1
 41
0.7695
  7
FontTableH_0
 72
     5
 11
220.372108
 21
178.423927
 31
0.0
100
AcDbText
  0
TEXT
  5
23B
100
AcDbEntity
  8
0
 62
     7
100
AcDbText
 10
214.747108
 20
175.398927
 30
0.0
 40
2.5
  1
3.5
 41
0.7695
  7
FontTableH_0
 72
     5
 11
220.372108
 21
175.398927
 31
0.0
100
AcDbText
  0
TEXT
  5
23C
100
AcDbEntity
  8
0
 62
     7
100
AcDbText
 10
214.747108
 20
172.373927
 30
0.0
 40
2.5
  1
3.0
 41
0.7695
  7
FontTableH_0
 72
     5
 11
220.372108
 21
172.373927
 31
0.0
100
AcDbText
  0
TEXT
  5
23D
100
AcDbEntity
  8
0
 62
     7
100
AcDbText
 10
214.747108
 20
169.348927
 30
0.0
 40
2.5
  1
3.0
 41
0.7695
  7
FontTableH_0
 72
     5
 11
220.372108
 21
169.348927
 31
0.0
100
AcDbText
  0
TEXT
  5
23E
100
AcDbEntity
  8
0
 62
     7
100
AcDbText
 10
214.747108
 20
166.323927
 30
0.0
 40
2.5
  1
2.5
 41
0.7695
  7
FontTableH_0
 72
     5
 11
220.372108
 21
166.323927
 31
0.0
100
AcDbText
  0
TEXT
  5
23F
100
AcDbEntity
  8
0
 62
     7
100
AcDbText
 10
214.747108
 20
163.298927
 30
0.0
 40
2.5
  1
2.5
 41
0.7695
  7
FontTableH_0
 72
     5
 11
220.372108
 21
163.298927
 31
0.0
100
AcDbText
  0
TEXT
  5
240
100
AcDbEntity
  8
0
 62
     7
100
AcDbText
 10
214.747108
 20
160.273927
 30
0.0
 40
2.5
  1
4.1
 41
0.7695
  7
FontTableH_0
 72
     5
 11
220.372108
 21
160.273927
 31
0.0
100
AcDbText
  0
TEXT
  5
241
100
AcDbEntity
  8
0
 62
     7
100
AcDbText
 10
214.747108
 20
157.248927
 30
0.0
 40
2.5
  1
4.0
 41
0.7695
  7
FontTableH_0
 72
     5
 11
220.372108
 21
157.248927
 31
0.0
100
AcDbText
  0
TEXT
  5
242
100
AcDbEntity
  8
0
 62
     7
100
AcDbText
 10
214.747108
 20
154.223927
 30
0.0
 40
2.5
  1
3.5
 41
0.7695
  7
FontTableH_0
 72
     5
 11
220.372108
 21
154.223927
 31
0.0
100
AcDbText
  0
TEXT
  5
243
100
AcDbEntity
  8
0
 62
     7
100
AcDbText
 10
214.747108
 20
151.198927
 30
0.0
 40
2.5
  1
3.0
 41
0.7695
  7
FontTableH_0
 72
     5
 11
220.372108
 21
151.198927
 31
0.0
100
AcDbText
  0
TEXT
  5
244
100
AcDbEntity
  8
0
 62
     7
100
AcDbText
 10
214.747108
 20
148.173927
 30
0.0
 40
2.5
  1
3.0
 41
0.7695
  7
FontTableH_0
 72
     5
 11
220.372108
 21
148.173927
 31
0.0
100
AcDbText
  0
TEXT
  5
245
100
AcDbEntity
  8
0
 62
     7
100
AcDbText
 10
214.747108
 20
145.148927
 30
0.0
 40
2.5
  1
2.5
 41
0.7695
  7
FontTableH_0
 72
     5
 11
220.372108
 21
145.148927
 31
0.0
100
AcDbText
  0
TEXT
  5
246
100
AcDbEntity
  8
0
 62
     7
100
AcDbText
 10
214.747108
 20
142.123927
 30
0.0
 40
2.5
  1
2.5
 41
0.7695
  7
FontTableH_0
 72
     5
 11
220.372108
 21
142.123927
 31
0.0
100
AcDbText
  0
TEXT
  5
247
100
AcDbEntity
  8
0
 62
     7
100
AcDbText
 10
214.747108
 20
139.098927
 30
0.0
 40
2.5
  1
4.5
 41
0.7695
  7
FontTableH_0
 72
     5
 11
220.372108
 21
139.098927
 31
0.0
100
AcDbText
  0
TEXT
  5
248
100
AcDbEntity
  8
0
 62
     7
100
AcDbText
 10
214.747108
 20
136.073928
 30
0.0
 40
2.5
  1
4.0
 41
0.7695
  7
FontTableH_0
 72
     5
 11
220.372108
 21
136.073928
 31
0.0
100
AcDbText
  0
TEXT
  5
249
100
AcDbEntity
  8
0
 62
     7
100
AcDbText
 10
214.747108
 20
133.048928
 30
0.0
 40
2.5
  1
3.5
 41
0.7695
  7
FontTableH_0
 72
     5
 11
220.372108
 21
133.048928
 31
0.0
100
AcDbText
  0
TEXT
  5
24A
100
AcDbEntity
  8
0
 62
     7
100
AcDbText
 10
214.747108
 20
130.023928
 30
0.0
 40
2.5
  1
3.0
 41
0.7695
  7
FontTableH_0
 72
     5
 11
220.372108
 21
130.023928
 31
0.0
100
AcDbText
  0
TEXT
  5
24B
100
AcDbEntity
  8
0
 62
     7
100
AcDbText
 10
214.747108
 20
126.998928
 30
0.0
 40
2.5
  1
3.0
 41
0.7695
  7
FontTableH_0
 72
     5
 11
220.372108
 21
126.998928
 31
0.0
100
AcDbText
  0
TEXT
  5
24C
100
AcDbEntity
  8
0
 62
     7
100
AcDbText
 10
214.747108
 20
123.973928
 30
0.0
 40
2.5
  1
2.5
 41
0.7695
  7
FontTableH_0
 72
     5
 11
220.372108
 21
123.973928
 31
0.0
100
AcDbText
  0
TEXT
  5
24D
100
AcDbEntity
  8
0
 62
     7
100
AcDbText
 10
214.747108
 20
120.948928
 30
0.0
 40
2.5
  1
2.5
 41
0.7695
  7
FontTableH_0
 72
     5
 11
220.372108
 21
120.948928
 31
0.0
100
AcDbText
  0
TEXT
  5
24E
100
AcDbEntity
  8
0
 62
     7
100
AcDbText
 10
214.747108
 20
117.923928
 30
0.0
 40
2.5
  1
5.0
 41
0.7695
  7
FontTableH_0
 72
     5
 11
220.372108
 21
117.923928
 31
0.0
100
AcDbText
  0
TEXT
  5
24F
100
AcDbEntity
  8
0
 62
     7
100
AcDbText
 10
214.747108
 20
114.898928
 30
0.0
 40
2.5
  1
4.5
 41
0.7695
  7
FontTableH_0
 72
     5
 11
220.372108
 21
114.898928
 31
0.0
100
AcDbText
  0
TEXT
  5
250
100
AcDbEntity
  8
0
 62
     7
100
AcDbText
 10
214.747108
 20
111.873928
 30
0.0
 40
2.5
  1
4.0
 41
0.7695
  7
FontTableH_0
 72
     5
 11
220.372108
 21
111.873928
 31
0.0
100
AcDbText
  0
TEXT
  5
251
100
AcDbEntity
  8
0
 62
     7
100
AcDbText
 10
214.747108
 20
108.848928
 30
0.0
 40
2.5
  1
3.5
 41
0.7695
  7
FontTableH_0
 72
     5
 11
220.372108
 21
108.848928
 31
0.0
100
AcDbText
  0
TEXT
  5
252
100
AcDbEntity
  8
0
 62
     7
100
AcDbText
 10
214.747108
 20
105.823928
 30
0.0
 40
2.5
  1
3.0
 41
0.7695
  7
FontTableH_0
 72
     5
 11
220.372108
 21
105.823928
 31
0.0
100
AcDbText
  0
TEXT
  5
253
100
AcDbEntity
  8
0
 62
     7
100
AcDbText
 10
214.747108
 20
102.798928
 30
0.0
 40
2.5
  1
3.0
 41
0.7695
  7
FontTableH_0
 72
     5
 11
220.372108
 21
102.798928
 31
0.0
100
AcDbText
  0
TEXT
  5
254
100
AcDbEntity
  8
0
 62
     7
100
AcDbText
 10
214.747108
 20
99.773928
 30
0.0
 40
2.5
  1
2.5
 41
0.7695
  7
FontTableH_0
 72
     5
 11
220.372108
 21
99.773928
 31
0.0
100
AcDbText
  0
TEXT
  5
255
100
AcDbEntity
  8
0
 62
     7
100
AcDbText
 10
214.747108
 20
96.748928
 30
0.0
 40
2.5
  1
2.5
 41
0.7695
  7
FontTableH_0
 72
     5
 11
220.372108
 21
96.748928
 31
0.0
100
AcDbText
  0
TEXT
  5
256
100
AcDbEntity
  8
0
 62
     7
100
AcDbText
 10
214.747108
 20
93.723928
 30
0.0
 40
2.5
  1
6.0
 41
0.7695
  7
FontTableH_0
 72
     5
 11
220.372108
 21
93.723928
 31
0.0
100
AcDbText
  0
TEXT
  5
257
100
AcDbEntity
  8
0
 62
     7
100
AcDbText
 10
214.747108
 20
90.698928
 30
0.0
 40
2.5
  1
5.0
 41
0.7695
  7
FontTableH_0
 72
     5
 11
220.372108
 21
90.698928
 31
0.0
100
AcDbText
  0
TEXT
  5
258
100
AcDbEntity
  8
0
 62
     7
100
AcDbText
 10
214.747108
 20
87.673928
 30
0.0
 40
2.5
  1
4.5
 41
0.7695
  7
FontTableH_0
 72
     5
 11
220.372108
 21
87.673928
 31
0.0
100
AcDbText
  0
TEXT
  5
259
100
AcDbEntity
  8
0
 62
     7
100
AcDbText
 10
214.747108
 20
84.648928
 30
0.0
 40
2.5
  1
4.0
 41
0.7695
  7
FontTableH_0
 72
     5
 11
220.372108
 21
84.648928
 31
0.0
100
AcDbText
  0
TEXT
  5
25A
100
AcDbEntity
  8
0
 62
     7
100
AcDbText
 10
214.747108
 20
81.623928
 30
0.0
 40
2.5
  1
3.5
 41
0.7695
  7
FontTableH_0
 72
     5
 11
220.372108
 21
81.623928
 31
0.0
100
AcDbText
  0
TEXT
  5
25B
100
AcDbEntity
  8
0
 62
     7
100
AcDbText
 10
214.747108
 20
78.598928
 30
0.0
 40
2.5
  1
3.0
 41
0.7695
  7
FontTableH_0
 72
     5
 11
220.372108
 21
78.598928
 31
0.0
100
AcDbText
  0
TEXT
  5
25C
100
AcDbEntity
  8
0
 62
     7
100
AcDbText
 10
214.747108
 20
75.573928
 30
0.0
 40
2.5
  1
3.0
 41
0.7695
  7
FontTableH_0
 72
     5
 11
220.372108
 21
75.573928
 31
0.0
100
AcDbText
  0
TEXT
  5
25D
100
AcDbEntity
  8
0
 62
     7
100
AcDbText
 10
214.747108
 20
72.548928
 30
0.0
 40
2.5
  1
2.5
 41
0.7695
  7
FontTableH_0
 72
     5
 11
220.372108
 21
72.548928
 31
0.0
100
AcDbText
  0
TEXT
  5
25E
100
AcDbEntity
  8
0
 62
     7
100
AcDbText
 10
214.747108
 20
69.523928
 30
0.0
 40
2.5
  1
2.5
 41
0.7695
  7
FontTableH_0
 72
     5
 11
220.372108
 21
69.523928
 31
0.0
100
AcDbText
  0
TEXT
  5
25F
100
AcDbEntity
  8
0
 62
     7
100
AcDbText
 10
278.049598
 20
120.795887
 30
0.0
 40
4.0
  1
Ｔ１
 50
90.0
 41
0.7695
  7
FontTableH_0
 72
     5
 11
278.049598
 21
128.795887
 31
0.0
100
AcDbText
  0
TEXT
  5
260
100
AcDbEntity
  8
0
 62
     7
100
AcDbText
 10
311.271828
 20
162.991006
 30
0.0
 40
4.0
  1
Ｔ２
 41
0.7695
  7
FontTableH_0
 72
     5
 11
319.271828
 21
162.991006
 31
0.0
100
AcDbText
  0
TEXT
  5
261
100
AcDbEntity
  8
0
 62
     7
100
AcDbText
 10
266.804391
 20
208.723217
 30
0.0
 40
4.0
  1
50
 41
0.7695
  7
FontTableH_0
 72
     5
 11
272.804391
 21
208.723217
 31
0.0
100
AcDbText
  0
TEXT
  5
262
100
AcDbEntity
  8
0
 62
     7
100
AcDbText
 10
349.375298
 20
161.542496
 30
0.0
 40
4.0
  1
50
 50
90.0
 41
0.7695
  7
FontTableH_0
 72
     5
 11
349.375298
 21
167.542496
 31
0.0
100
AcDbText
  0
TEXT
  5
263
100
AcDbEntity
  8
0
 62
     7
100
AcDbText
 10
286.786174
 20
208.723217
 30
0.0
 40
4.0
  1
φＢ
 41
0.7695
  7
FontTableH_0
 72
     5
 11
294.786174
 21
208.723217
 31
0.0
100
AcDbText
  0
TEXT
  5
264
100
AcDbEntity
  8
0
 62
     7
100
AcDbText
 10
349.375298
 20
175.063707
 30
0.0
 40
4.0
  1
ｌ２
 50
90.0
 41
0.7695
  7
FontTableH_0
 72
     5
 11
349.375298
 21
183.063707
 31
0.0
100
AcDbText
  0
TEXT
  5
265
100
AcDbEntity
  8
0
 62
     7
100
AcDbText
 10
323.286168
 20
91.452911
 30
0.0
 40
4.0
  1
ｌ１
 41
0.7695
  7
FontTableH_0
 72
     5
 11
331.286168
 21
91.452911
 31
0.0
100
AcDbText
  0
TEXT
  5
266
100
AcDbEntity
  8
0
 62
     7
100
AcDbText
 10
250.286168
 20
91.452911
 30
0.0
 40
4.0
  1
ｌ１
 41
0.7695
  7
FontTableH_0
 72
     5
 11
258.286168
 21
91.452911
 31
0.0
100
AcDbText
  0
TEXT
  5
267
100
AcDbEntity
  8
0
 62
     7
100
AcDbText
 10
288.286168
 20
81.452911
 30
0.0
 40
4.0
  1
Ｌ
 41
0.7695
  7
FontTableH_0
 72
     5
 11
292.286168
 21
81.452911
 31
0.0
100
AcDbText
  0
TEXT
  5
268
100
AcDbEntity
  8
0
 62
     7
100
AcDbText
 10
349.375298
 20
133.463716
 30
0.0
 40
4.0
  1
φＡ
 50
90.0
 41
0.7695
  7
FontTableH_0
 72
     5
 11
349.375298
 21
141.463716
 31
0.0
100
AcDbText
  0
TEXT
  5
269
100
AcDbEntity
  8
0
 62
     7
100
AcDbText
 10
362.203578
 20
160.763716
 30
0.0
 40
4.0
  1
Ｈ
 50
90.0
 41
0.7695
  7
FontTableH_0
 72
     5
 11
362.203578
 21
164.763716
 31
0.0
100
AcDbText
  0
TEXT
  5
26A
100
AcDbEntity
  8
0
 62
     7
100
AcDbText
 10
105.847112
 20
220.773927
 30
0.0
 40
2.5
  1
   ×125
 41
0.7695
  7
FontTableH_0
 72
     5
 11
115.847112
 21
220.773927
 31
0.0
100
AcDbText
  0
TEXT
  5
26B
100
AcDbEntity
  8
0
 62
     7
100
AcDbText
 10
105.847112
 20
217.748927
 30
0.0
 40
2.5
  1
　 ×100
 41
0.7695
  7
FontTableH_0
 72
     5
 11
115.847112
 21
217.748927
 31
0.0
100
AcDbText
  0
TEXT
  5
26C
100
AcDbEntity
  8
0
 62
     7
100
AcDbText
 10
105.847112
 20
214.723927
 30
0.0
 40
2.5
  1
200×200
 41
0.7695
  7
FontTableH_0
 72
     5
 11
115.847112
 21
214.723927
 31
0.0
100
AcDbText
  0
TEXT
  5
26D
100
AcDbEntity
  8
0
 62
     7
100
AcDbText
 10
105.847112
 20
211.698927
 30
0.0
 40
2.5
  1
　 ×150
 41
0.7695
  7
FontTableH_0
 72
     5
 11
115.847112
 21
211.698927
 31
0.0
100
AcDbText
  0
TEXT
  5
26E
100
AcDbEntity
  8
0
 62
     7
100
AcDbText
 10
105.847112
 20
208.673927
 30
0.0
 40
2.5
  1
　 ×125
 41
0.7695
  7
FontTableH_0
 72
     5
 11
115.847112
 21
208.673927
 31
0.0
100
AcDbText
  0
TEXT
  5
26F
100
AcDbEntity
  8
0
 62
     7
100
AcDbText
 10
105.847112
 20
205.648927
 30
0.0
 40
2.5
  1
　 ×100
 41
0.7695
  7
FontTableH_0
 72
     5
 11
115.847112
 21
205.648927
 31
0.0
100
AcDbText
  0
TEXT
  5
270
100
AcDbEntity
  8
0
 62
     7
100
AcDbText
 10
105.847112
 20
202.623927
 30
0.0
 40
2.5
  1
250×250
 41
0.7695
  7
FontTableH_0
 72
     5
 11
115.847112
 21
202.623927
 31
0.0
100
AcDbText
  0
TEXT
  5
271
100
AcDbEntity
  8
0
 62
     7
100
AcDbText
 10
105.847112
 20
199.598927
 30
0.0
 40
2.5
  1
　 ×200
 41
0.7695
  7
FontTableH_0
 72
     5
 11
115.847112
 21
199.598927
 31
0.0
100
AcDbText
  0
TEXT
  5
272
100
AcDbEntity
  8
0
 62
     7
100
AcDbText
 10
105.847112
 20
196.573927
 30
0.0
 40
2.5
  1
   ×150
 41
0.7695
  7
FontTableH_0
 72
     5
 11
115.847112
 21
196.573927
 31
0.0
100
AcDbText
  0
TEXT
  5
273
100
AcDbEntity
  8
0
 62
     7
100
AcDbText
 10
105.847112
 20
193.548927
 30
0.0
 40
2.5
  1
   ×125
 41
0.7695
  7
FontTableH_0
 72
     5
 11
115.847112
 21
193.548927
 31
0.0
100
AcDbText
  0
TEXT
  5
274
100
AcDbEntity
  8
0
 62
     7
100
AcDbText
 10
105.847112
 20
190.523927
 30
0.0
 40
2.5
  1
300×300
 41
0.7695
  7
FontTableH_0
 72
     5
 11
115.847112
 21
190.523927
 31
0.0
100
AcDbText
  0
TEXT
  5
275
100
AcDbEntity
  8
0
 62
     7
100
AcDbText
 10
105.847112
 20
187.498927
 30
0.0
 40
2.5
  1
   ×250
 41
0.7695
  7
FontTableH_0
 72
     5
 11
115.847112
 21
187.498927
 31
0.0
100
AcDbText
  0
TEXT
  5
276
100
AcDbEntity
  8
0
 62
     7
100
AcDbText
 10
105.847112
 20
184.473927
 30
0.0
 40
2.5
  1
   ×200
 41
0.7695
  7
FontTableH_0
 72
     5
 11
115.847112
 21
184.473927
 31
0.0
100
AcDbText
  0
TEXT
  5
277
100
AcDbEntity
  8
0
 62
     7
100
AcDbText
 10
105.847112
 20
181.448927
 30
0.0
 40
2.5
  1
   ×150
 41
0.7695
  7
FontTableH_0
 72
     5
 11
115.847112
 21
181.448927
 31
0.0
100
AcDbText
  0
TEXT
  5
278
100
AcDbEntity
  8
0
 62
     7
100
AcDbText
 10
105.847112
 20
178.423927
 30
0.0
 40
2.5
  1
   ×125
 41
0.7695
  7
FontTableH_0
 72
     5
 11
115.847112
 21
178.423927
 31
0.0
100
AcDbText
  0
TEXT
  5
279
100
AcDbEntity
  8
0
 62
     7
100
AcDbText
 10
105.847112
 20
175.398927
 30
0.0
 40
2.5
  1
350×350
 41
0.7695
  7
FontTableH_0
 72
     5
 11
115.847112
 21
175.398927
 31
0.0
100
AcDbText
  0
TEXT
  5
27A
100
AcDbEntity
  8
0
 62
     7
100
AcDbText
 10
105.847112
 20
172.373927
 30
0.0
 40
2.5
  1
   ×300
 41
0.7695
  7
FontTableH_0
 72
     5
 11
115.847112
 21
172.373927
 31
0.0
100
AcDbText
  0
TEXT
  5
27B
100
AcDbEntity
  8
0
 62
     7
100
AcDbText
 10
105.847112
 20
169.348927
 30
0.0
 40
2.5
  1
   ×250
 41
0.7695
  7
FontTableH_0
 72
     5
 11
115.847112
 21
169.348927
 31
0.0
100
AcDbText
  0
TEXT
  5
27C
100
AcDbEntity
  8
0
 62
     7
100
AcDbText
 10
105.847112
 20
166.323927
 30
0.0
 40
2.5
  1
   ×200
 41
0.7695
  7
FontTableH_0
 72
     5
 11
115.847112
 21
166.323927
 31
0.0
100
AcDbText
  0
TEXT
  5
27D
100
AcDbEntity
  8
0
 62
     7
100
AcDbText
 10
105.847112
 20
163.298927
 30
0.0
 40
2.5
  1
   ×150
 41
0.7695
  7
FontTableH_0
 72
     5
 11
115.847112
 21
163.298927
 31
0.0
100
AcDbText
  0
TEXT
  5
27E
100
AcDbEntity
  8
0
 62
     7
100
AcDbText
 10
105.847112
 20
160.273927
 30
0.0
 40
2.5
  1
   ×125
 41
0.7695
  7
FontTableH_0
 72
     5
 11
115.847112
 21
160.273927
 31
0.0
100
AcDbText
  0
TEXT
  5
27F
100
AcDbEntity
  8
0
 62
     7
100
AcDbText
 10
105.847112
 20
157.248927
 30
0.0
 40
2.5
  1
400×400
 41
0.7695
  7
FontTableH_0
 72
     5
 11
115.847112
 21
157.248927
 31
0.0
100
AcDbText
  0
TEXT
  5
280
100
AcDbEntity
  8
0
 62
     7
100
AcDbText
 10
105.847112
 20
154.223927
 30
0.0
 40
2.5
  1
   ×350
 41
0.7695
  7
FontTableH_0
 72
     5
 11
115.847112
 21
154.223927
 31
0.0
100
AcDbText
  0
TEXT
  5
281
100
AcDbEntity
  8
0
 62
     7
100
AcDbText
 10
105.847112
 20
151.198927
 30
0.0
 40
2.5
  1
   ×300
 41
0.7695
  7
FontTableH_0
 72
     5
 11
115.847112
 21
151.198927
 31
0.0
100
AcDbText
  0
TEXT
  5
282
100
AcDbEntity
  8
0
 62
     7
100
AcDbText
 10
105.847112
 20
148.173927
 30
0.0
 40
2.5
  1
   ×250
 41
0.7695
  7
FontTableH_0
 72
     5
 11
115.847112
 21
148.173927
 31
0.0
100
AcDbText
  0
TEXT
  5
283
100
AcDbEntity
  8
0
 62
     7
100
AcDbText
 10
105.847112
 20
145.148927
 30
0.0
 40
2.5
  1
   ×200
 41
0.7695
  7
FontTableH_0
 72
     5
 11
115.847112
 21
145.148927
 31
0.0
100
AcDbText
  0
TEXT
  5
284
100
AcDbEntity
  8
0
 62
     7
100
AcDbText
 10
105.847112
 20
142.123927
 30
0.0
 40
2.5
  1
   ×150
 41
0.7695
  7
FontTableH_0
 72
     5
 11
115.847112
 21
142.123927
 31
0.0
100
AcDbText
  0
TEXT
  5
285
100
AcDbEntity
  8
0
 62
     7
100
AcDbText
 10
105.847112
 20
139.098927
 30
0.0
 40
2.5
  1
450×450
 41
0.7695
  7
FontTableH_0
 72
     5
 11
115.847112
 21
139.098927
 31
0.0
100
AcDbText
  0
TEXT
  5
286
100
AcDbEntity
  8
0
 62
     7
100
AcDbText
 10
105.847112
 20
136.073928
 30
0.0
 40
2.5
  1
   ×400
 41
0.7695
  7
FontTableH_0
 72
     5
 11
115.847112
 21
136.073928
 31
0.0
100
AcDbText
  0
TEXT
  5
287
100
AcDbEntity
  8
0
 62
     7
100
AcDbText
 10
105.847112
 20
133.048928
 30
0.0
 40
2.5
  1
   ×350
 41
0.7695
  7
FontTableH_0
 72
     5
 11
115.847112
 21
133.048928
 31
0.0
100
AcDbText
  0
TEXT
  5
288
100
AcDbEntity
  8
0
 62
     7
100
AcDbText
 10
105.847112
 20
130.023928
 30
0.0
 40
2.5
  1
   ×300
 41
0.7695
  7
FontTableH_0
 72
     5
 11
115.847112
 21
130.023928
 31
0.0
100
AcDbText
  0
TEXT
  5
289
100
AcDbEntity
  8
0
 62
     7
100
AcDbText
 10
105.847112
 20
126.998928
 30
0.0
 40
2.5
  1
   ×250
 41
0.7695
  7
FontTableH_0
 72
     5
 11
115.847112
 21
126.998928
 31
0.0
100
AcDbText
  0
TEXT
  5
28A
100
AcDbEntity
  8
0
 62
     7
100
AcDbText
 10
105.847112
 20
123.973928
 30
0.0
 40
2.5
  1
   ×200
 41
0.7695
  7
FontTableH_0
 72
     5
 11
115.847112
 21
123.973928
 31
0.0
100
AcDbText
  0
TEXT
  5
28B
100
AcDbEntity
  8
0
 62
     7
100
AcDbText
 10
105.847112
 20
120.948928
 30
0.0
 40
2.5
  1
   ×150
 41
0.7695
  7
FontTableH_0
 72
     5
 11
115.847112
 21
120.948928
 31
0.0
100
AcDbText
  0
TEXT
  5
28C
100
AcDbEntity
  8
0
 62
     7
100
AcDbText
 10
105.847112
 20
117.923928
 30
0.0
 40
2.5
  1
500×500
 41
0.7695
  7
FontTableH_0
 72
     5
 11
115.847112
 21
117.923928
 31
0.0
100
AcDbText
  0
TEXT
  5
28D
100
AcDbEntity
  8
0
 62
     7
100
AcDbText
 10
105.847112
 20
114.898928
 30
0.0
 40
2.5
  1
   ×450
 41
0.7695
  7
FontTableH_0
 72
     5
 11
115.847112
 21
114.898928
 31
0.0
100
AcDbText
  0
TEXT
  5
28E
100
AcDbEntity
  8
0
 62
     7
100
AcDbText
 10
105.847112
 20
111.873928
 30
0.0
 40
2.5
  1
   ×400
 41
0.7695
  7
FontTableH_0
 72
     5
 11
115.847112
 21
111.873928
 31
0.0
100
AcDbText
  0
TEXT
  5
28F
100
AcDbEntity
  8
0
 62
     7
100
AcDbText
 10
105.847112
 20
108.848928
 30
0.0
 40
2.5
  1
   ×350
 41
0.7695
  7
FontTableH_0
 72
     5
 11
115.847112
 21
108.848928
 31
0.0
100
AcDbText
  0
TEXT
  5
290
100
AcDbEntity
  8
0
 62
     7
100
AcDbText
 10
105.847112
 20
105.823928
 30
0.0
 40
2.5
  1
   ×300
 41
0.7695
  7
FontTableH_0
 72
     5
 11
115.847112
 21
105.823928
 31
0.0
100
AcDbText
  0
TEXT
  5
291
100
AcDbEntity
  8
0
 62
     7
100
AcDbText
 10
105.847112
 20
102.798928
 30
0.0
 40
2.5
  1
   ×250
 41
0.7695
  7
FontTableH_0
 72
     5
 11
115.847112
 21
102.798928
 31
0.0
100
AcDbText
  0
TEXT
  5
292
100
AcDbEntity
  8
0
 62
     7
100
AcDbText
 10
105.847112
 20
99.773928
 30
0.0
 40
2.5
  1
   ×200
 41
0.7695
  7
FontTableH_0
 72
     5
 11
115.847112
 21
99.773928
 31
0.0
100
AcDbText
  0
TEXT
  5
293
100
AcDbEntity
  8
0
 62
     7
100
AcDbText
 10
105.847112
 20
96.748928
 30
0.0
 40
2.5
  1
   ×150
 41
0.7695
  7
FontTableH_0
 72
     5
 11
115.847112
 21
96.748928
 31
0.0
100
AcDbText
  0
TEXT
  5
294
100
AcDbEntity
  8
0
 62
     7
100
AcDbText
 10
105.847112
 20
93.723928
 30
0.0
 40
2.5
  1
600×600
 41
0.7695
  7
FontTableH_0
 72
     5
 11
115.847112
 21
93.723928
 31
0.0
100
AcDbText
  0
TEXT
  5
295
100
AcDbEntity
  8
0
 62
     7
100
AcDbText
 10
105.847112
 20
90.698928
 30
0.0
 40
2.5
  1
   ×500
 41
0.7695
  7
FontTableH_0
 72
     5
 11
115.847112
 21
90.698928
 31
0.0
100
AcDbText
  0
TEXT
  5
296
100
AcDbEntity
  8
0
 62
     7
100
AcDbText
 10
105.847112
 20
87.673928
 30
0.0
 40
2.5
  1
   ×450
 41
0.7695
  7
FontTableH_0
 72
     5
 11
115.847112
 21
87.673928
 31
0.0
100
AcDbText
  0
TEXT
  5
297
100
AcDbEntity
  8
0
 62
     7
100
AcDbText
 10
105.847112
 20
84.648928
 30
0.0
 40
2.5
  1
   ×400
 41
0.7695
  7
FontTableH_0
 72
     5
 11
115.847112
 21
84.648928
 31
0.0
100
AcDbText
  0
TEXT
  5
298
100
AcDbEntity
  8
0
 62
     7
100
AcDbText
 10
105.847112
 20
81.623928
 30
0.0
 40
2.5
  1
   ×350
 41
0.7695
  7
FontTableH_0
 72
     5
 11
115.847112
 21
81.623928
 31
0.0
100
AcDbText
  0
TEXT
  5
299
100
AcDbEntity
  8
0
 62
     7
100
AcDbText
 10
105.847112
 20
78.598928
 30
0.0
 40
2.5
  1
   ×300
 41
0.7695
  7
FontTableH_0
 72
     5
 11
115.847112
 21
78.598928
 31
0.0
100
AcDbText
  0
TEXT
  5
29A
100
AcDbEntity
  8
0
 62
     7
100
AcDbText
 10
105.847112
 20
75.573928
 30
0.0
 40
2.5
  1
   ×250
 41
0.7695
  7
FontTableH_0
 72
     5
 11
115.847112
 21
75.573928
 31
0.0
100
AcDbText
  0
TEXT
  5
29B
100
AcDbEntity
  8
0
 62
     7
100
AcDbText
 10
105.847112
 20
72.548928
 30
0.0
 40
2.5
  1
   ×200
 41
0.7695
  7
FontTableH_0
 72
     5
 11
115.847112
 21
72.548928
 31
0.0
100
AcDbText
  0
TEXT
  5
29C
100
AcDbEntity
  8
0
 62
     7
100
AcDbText
 10
105.847112
 20
69.523928
 30
0.0
 40
2.5
  1
   ×150
 41
0.7695
  7
FontTableH_0
 72
     5
 11
115.847112
 21
69.523928
 31
0.0
100
AcDbText
  0
TEXT
  5
29D
100
AcDbEntity
  8
0
 62
     7
100
AcDbText
 10
105.847112
 20
223.798927
 30
0.0
 40
2.5
  1
150×150
 41
0.7695
  7
FontTableH_0
 72
     5
 11
115.847112
 21
223.798927
 31
0.0
100
AcDbText
  0
TEXT
  5
29E
100
AcDbEntity
  8
0
 62
     7
100
AcDbText
 10
159.947112
 20
223.798927
 30
0.0
 40
2.5
  1
232.5
 41
0.7695
  7
FontTableH_0
 72
     5
 11
169.322112
 21
223.798927
 31
0.0
100
AcDbText
  0
TEXT
  5
29F
100
AcDbEntity
  8
0
 62
     7
100
AcDbText
 10
159.947112
 20
220.773927
 30
0.0
 40
2.5
  1
212.5
 41
0.7695
  7
FontTableH_0
 72
     5
 11
169.322112
 21
220.773927
 31
0.0
100
AcDbText
  0
TEXT
  5
2A0
100
AcDbEntity
  8
0
 62
     7
100
AcDbText
 10
159.947112
 20
217.748927
 30
0.0
 40
2.5
  1
212.5
 41
0.7695
  7
FontTableH_0
 72
     5
 11
169.322112
 21
217.748927
 31
0.0
100
AcDbText
  0
TEXT
  5
2A1
100
AcDbEntity
  8
0
 62
     7
100
AcDbText
 10
159.947112
 20
202.623927
 30
0.0
 40
2.5
  1
293.5
 41
0.7695
  7
FontTableH_0
 72
     5
 11
169.322112
 21
202.623927
 31
0.0
100
AcDbText
  0
TEXT
  5
2A2
100
AcDbEntity
  8
0
 62
     7
100
AcDbText
 10
159.947112
 20
199.598927
 30
0.0
 40
2.5
  1
283.5
 41
0.7695
  7
FontTableH_0
 72
     5
 11
169.322112
 21
199.598927
 31
0.0
100
AcDbText
  0
TEXT
  5
2A3
100
AcDbEntity
  8
0
 62
     7
100
AcDbText
 10
159.947112
 20
196.573927
 30
0.0
 40
2.5
  1
283.5
 41
0.7695
  7
FontTableH_0
 72
     5
 11
169.322112
 21
196.573927
 31
0.0
100
AcDbText
  0
TEXT
  5
2A4
100
AcDbEntity
  8
0
 62
     7
100
AcDbText
 10
159.947112
 20
193.548927
 30
0.0
 40
2.5
  1
263.5
 41
0.7695
  7
FontTableH_0
 72
     5
 11
169.322112
 21
193.548927
 31
0.0
100
AcDbText
  0
TEXT
  5
2A5
100
AcDbEntity
  8
0
 62
     7
100
AcDbText
 10
148.747112
 20
220.773927
 30
0.0
 40
2.5
  1
440
 41
0.7695
  7
FontTableH_0
 72
     5
 11
154.372112
 21
220.773927
 31
0.0
100
AcDbText
  0
TEXT
  5
2A6
100
AcDbEntity
  8
0
 62
     7
100
AcDbText
 10
148.747112
 20
217.748927
 30
0.0
 40
2.5
  1
414
 41
0.7695
  7
FontTableH_0
 72
     5
 11
154.372112
 21
217.748927
 31
0.0
100
AcDbText
  0
TEXT
  5
2A7
100
AcDbEntity
  8
0
 62
     7
100
AcDbText
 10
148.747112
 20
208.673927
 30
0.0
 40
2.5
  1
440
 41
0.7695
  7
FontTableH_0
 72
     5
 11
154.372112
 21
208.673927
 31
0.0
100
AcDbText
  0
TEXT
  5
2A8
100
AcDbEntity
  8
0
 62
     7
100
AcDbText
 10
148.747112
 20
205.648927
 30
0.0
 40
2.5
  1
414
 41
0.7695
  7
FontTableH_0
 72
     5
 11
154.372112
 21
205.648927
 31
0.0
100
AcDbText
  0
TEXT
  5
2A9
100
AcDbEntity
  8
0
 62
     7
100
AcDbText
 10
148.747112
 20
199.598927
 30
0.0
 40
2.5
  1
536
 41
0.7695
  7
FontTableH_0
 72
     5
 11
154.372112
 21
199.598927
 31
0.0
100
AcDbText
  0
TEXT
  5
2AA
100
AcDbEntity
  8
0
 62
     7
100
AcDbText
 10
148.747112
 20
196.573927
 30
0.0
 40
2.5
  1
485
 41
0.7695
  7
FontTableH_0
 72
     5
 11
154.372112
 21
196.573927
 31
0.0
100
AcDbText
  0
TEXT
  5
2AB
100
AcDbEntity
  8
0
 62
     7
100
AcDbText
 10
148.747112
 20
193.548927
 30
0.0
 40
2.5
  1
460
 41
0.7695
  7
FontTableH_0
 72
     5
 11
154.372112
 21
193.548927
 31
0.0
100
AcDbText
  0
TEXT
  5
2AC
100
AcDbEntity
  8
0
 62
     7
100
AcDbText
 10
148.747112
 20
190.523927
 30
0.0
 40
2.5
  1
678
 41
0.7695
  7
FontTableH_0
 72
     5
 11
154.372112
 21
190.523927
 31
0.0
100
AcDbText
  0
TEXT
  5
2AD
100
AcDbEntity
  8
0
 62
     7
100
AcDbText
 10
148.747112
 20
187.498927
 30
0.0
 40
2.5
  1
627
 41
0.7695
  7
FontTableH_0
 72
     5
 11
154.372112
 21
187.498927
 31
0.0
100
AcDbText
  0
TEXT
  5
2AE
100
AcDbEntity
  8
0
 62
     7
100
AcDbText
 10
148.747112
 20
184.473927
 30
0.0
 40
2.5
  1
556
 41
0.7695
  7
FontTableH_0
 72
     5
 11
154.372112
 21
184.473927
 31
0.0
100
AcDbText
  0
TEXT
  5
2AF
100
AcDbEntity
  8
0
 62
     7
100
AcDbText
 10
148.747112
 20
181.448927
 30
0.0
 40
2.5
  1
505
 41
0.7695
  7
FontTableH_0
 72
     5
 11
154.372112
 21
181.448927
 31
0.0
100
AcDbText
  0
TEXT
  5
2B0
100
AcDbEntity
  8
0
 62
     7
100
AcDbText
 10
148.747112
 20
178.423927
 30
0.0
 40
2.5
  1
480
 41
0.7695
  7
FontTableH_0
 72
     5
 11
154.372112
 21
178.423927
 31
0.0
100
AcDbText
  0
TEXT
  5
2B1
100
AcDbEntity
  8
0
 62
     7
100
AcDbText
 10
148.747112
 20
172.373927
 30
0.0
 40
2.5
  1
678
 41
0.7695
  7
FontTableH_0
 72
     5
 11
154.372112
 21
172.373927
 31
0.0
100
AcDbText
  0
TEXT
  5
2B2
100
AcDbEntity
  8
0
 62
     7
100
AcDbText
 10
148.747112
 20
169.348927
 30
0.0
 40
2.5
  1
627
 41
0.7695
  7
FontTableH_0
 72
     5
 11
154.372112
 21
169.348927
 31
0.0
100
AcDbText
  0
TEXT
  5
2B3
100
AcDbEntity
  8
0
 62
     7
100
AcDbText
 10
148.747112
 20
166.323927
 30
0.0
 40
2.5
  1
576
 41
0.7695
  7
FontTableH_0
 72
     5
 11
154.372112
 21
166.323927
 31
0.0
100
AcDbText
  0
TEXT
  5
2B4
100
AcDbEntity
  8
0
 62
     7
100
AcDbText
 10
148.747112
 20
163.298927
 30
0.0
 40
2.5
  1
525
 41
0.7695
  7
FontTableH_0
 72
     5
 11
154.372112
 21
163.298927
 31
0.0
100
AcDbText
  0
TEXT
  5
2B5
100
AcDbEntity
  8
0
 62
     7
100
AcDbText
 10
148.747112
 20
160.273927
 30
0.0
 40
2.5
  1
500
 41
0.7695
  7
FontTableH_0
 72
     5
 11
154.372112
 21
160.273927
 31
0.0
100
AcDbText
  0
TEXT
  5
2B6
100
AcDbEntity
  8
0
 62
     7
100
AcDbText
 10
148.747112
 20
154.223927
 30
0.0
 40
2.5
  1
750
 41
0.7695
  7
FontTableH_0
 72
     5
 11
154.372112
 21
154.223927
 31
0.0
100
AcDbText
  0
TEXT
  5
2B7
100
AcDbEntity
  8
0
 62
     7
100
AcDbText
 10
148.747112
 20
151.198927
 30
0.0
 40
2.5
  1
698
 41
0.7695
  7
FontTableH_0
 72
     5
 11
154.372112
 21
151.198927
 31
0.0
100
AcDbText
  0
TEXT
  5
2B8
100
AcDbEntity
  8
0
 62
     7
100
AcDbText
 10
148.747112
 20
148.173927
 30
0.0
 40
2.5
  1
647
 41
0.7695
  7
FontTableH_0
 72
     5
 11
154.372112
 21
148.173927
 31
0.0
100
AcDbText
  0
TEXT
  5
2B9
100
AcDbEntity
  8
0
 62
     7
100
AcDbText
 10
148.747112
 20
145.148927
 30
0.0
 40
2.5
  1
596
 41
0.7695
  7
FontTableH_0
 72
     5
 11
154.372112
 21
145.148927
 31
0.0
100
AcDbText
  0
TEXT
  5
2BA
100
AcDbEntity
  8
0
 62
     7
100
AcDbText
 10
148.747112
 20
142.123927
 30
0.0
 40
2.5
  1
545
 41
0.7695
  7
FontTableH_0
 72
     5
 11
154.372112
 21
142.123927
 31
0.0
100
AcDbText
  0
TEXT
  5
2BB
100
AcDbEntity
  8
0
 62
     7
100
AcDbText
 10
148.747112
 20
133.048928
 30
0.0
 40
2.5
  1
750
 41
0.7695
  7
FontTableH_0
 72
     5
 11
154.372112
 21
133.048928
 31
0.0
100
AcDbText
  0
TEXT
  5
2BC
100
AcDbEntity
  8
0
 62
     7
100
AcDbText
 10
148.747112
 20
130.023928
 30
0.0
 40
2.5
  1
698
 41
0.7695
  7
FontTableH_0
 72
     5
 11
154.372112
 21
130.023928
 31
0.0
100
AcDbText
  0
TEXT
  5
2BD
100
AcDbEntity
  8
0
 62
     7
100
AcDbText
 10
148.747112
 20
126.998928
 30
0.0
 40
2.5
  1
647
 41
0.7695
  7
FontTableH_0
 72
     5
 11
154.372112
 21
126.998928
 31
0.0
100
AcDbText
  0
TEXT
  5
2BE
100
AcDbEntity
  8
0
 62
     7
100
AcDbText
 10
148.747112
 20
123.973928
 30
0.0
 40
2.5
  1
596
 41
0.7695
  7
FontTableH_0
 72
     5
 11
154.372112
 21
123.973928
 31
0.0
100
AcDbText
  0
TEXT
  5
2BF
100
AcDbEntity
  8
0
 62
     7
100
AcDbText
 10
148.747112
 20
120.948928
 30
0.0
 40
2.5
  1
545
 41
0.7695
  7
FontTableH_0
 72
     5
 11
154.372112
 21
120.948928
 31
0.0
100
AcDbText
  0
TEXT
  5
2C0
100
AcDbEntity
  8
0
 62
     7
100
AcDbText
 10
148.747112
 20
108.848928
 30
0.0
 40
2.5
  1
750
 41
0.7695
  7
FontTableH_0
 72
     5
 11
154.372112
 21
108.848928
 31
0.0
100
AcDbText
  0
TEXT
  5
2C1
100
AcDbEntity
  8
0
 62
     7
100
AcDbText
 10
148.747112
 20
105.823928
 30
0.0
 40
2.5
  1
698
 41
0.7695
  7
FontTableH_0
 72
     5
 11
154.372112
 21
105.823928
 31
0.0
100
AcDbText
  0
TEXT
  5
2C2
100
AcDbEntity
  8
0
 62
     7
100
AcDbText
 10
148.747112
 20
102.798928
 30
0.0
 40
2.5
  1
647
 41
0.7695
  7
FontTableH_0
 72
     5
 11
154.372112
 21
102.798928
 31
0.0
100
AcDbText
  0
TEXT
  5
2C3
100
AcDbEntity
  8
0
 62
     7
100
AcDbText
 10
148.747112
 20
99.773928
 30
0.0
 40
2.5
  1
596
 41
0.7695
  7
FontTableH_0
 72
     5
 11
154.372112
 21
99.773928
 31
0.0
100
AcDbText
  0
TEXT
  5
2C4
100
AcDbEntity
  8
0
 62
     7
100
AcDbText
 10
148.747112
 20
96.748928
 30
0.0
 40
2.5
  1
545
 41
0.7695
  7
FontTableH_0
 72
     5
 11
154.372112
 21
96.748928
 31
0.0
100
AcDbText
  0
TEXT
  5
2C5
100
AcDbEntity
  8
0
 62
     7
100
AcDbText
 10
148.747112
 20
90.698928
 30
0.0
 40
2.5
  1
920
 41
0.7695
  7
FontTableH_0
 72
     5
 11
154.372112
 21
90.698928
 31
0.0
100
AcDbText
  0
TEXT
  5
2C6
100
AcDbEntity
  8
0
 62
     7
100
AcDbText
 10
148.747112
 20
87.673928
 30
0.0
 40
2.5
  1
870
 41
0.7695
  7
FontTableH_0
 72
     5
 11
154.372112
 21
87.673928
 31
0.0
100
AcDbText
  0
TEXT
  5
2C7
100
AcDbEntity
  8
0
 62
     7
100
AcDbText
 10
148.747112
 20
84.648928
 30
0.0
 40
2.5
  1
820
 41
0.7695
  7
FontTableH_0
 72
     5
 11
154.372112
 21
84.648928
 31
0.0
100
AcDbText
  0
TEXT
  5
2C8
100
AcDbEntity
  8
0
 62
     7
100
AcDbText
 10
148.747112
 20
81.623928
 30
0.0
 40
2.5
  1
770
 41
0.7695
  7
FontTableH_0
 72
     5
 11
154.372112
 21
81.623928
 31
0.0
100
AcDbText
  0
TEXT
  5
2C9
100
AcDbEntity
  8
0
 62
     7
100
AcDbText
 10
148.747112
 20
78.598928
 30
0.0
 40
2.5
  1
718
 41
0.7695
  7
FontTableH_0
 72
     5
 11
154.372112
 21
78.598928
 31
0.0
100
AcDbText
  0
TEXT
  5
2CA
100
AcDbEntity
  8
0
 62
     7
100
AcDbText
 10
148.747112
 20
75.573928
 30
0.0
 40
2.5
  1
667
 41
0.7695
  7
FontTableH_0
 72
     5
 11
154.372112
 21
75.573928
 31
0.0
100
AcDbText
  0
TEXT
  5
2CB
100
AcDbEntity
  8
0
 62
     7
100
AcDbText
 10
148.747112
 20
72.548928
 30
0.0
 40
2.5
  1
616
 41
0.7695
  7
FontTableH_0
 72
     5
 11
154.372112
 21
72.548928
 31
0.0
100
AcDbText
  0
TEXT
  5
2CC
100
AcDbEntity
  8
0
 62
     7
100
AcDbText
 10
148.747112
 20
69.523928
 30
0.0
 40
2.5
  1
565
 41
0.7695
  7
FontTableH_0
 72
     5
 11
154.372112
 21
69.523928
 31
0.0
100
AcDbText
  0
ENDSEC
  0
SECTION
  2
OBJECTS
  0
DICTIONARY
  5
19
100
AcDbDictionary
  3
ACAD_GROUP
350
1A
  3
ACAD_MLINESTYLE
350
1B
  3
DWGPROPS
350
2CD
  0
DICTIONARY
  5
1A
102
{ACAD_REACTORS
330
19
102
}
100
AcDbDictionary
  0
DICTIONARY
  5
1B
102
{ACAD_REACTORS
330
19
102
}
100
AcDbDictionary
  3
STANDARD
350
1C
  0
MLINESTYLE
  5
1C
102
{ACAD_REACTORS
330
1B
102
}
100
AcDbMlineStyle
  2
Standard
 70
     0
  3

 62
     0
 51
90.0
 52
90.0
 71
     2
 49
0.5
 62
   256
  6
ByLayer
 49
-0.5
 62
   256
  6
ByLayer
  0
XRECORD
  5
2CD
100
AcDbXrecord
  1
DWGPROPS COOKIE
  2

  3

  4

  6

  7

  0
ENDSEC
  0
EOF
