  0
SECTION
  2
HEADER
  9
$ACADVER
  1
AC1014
  9
$ACADMAINTVER
 70
     0
  9
$DWGCODEPAGE
  3
ANSI_932
  9
$INSBASE
 10
0.0
 20
0.0
 30
0.0
  9
$EXTMIN
 10
0.0
 20
0.0
 30
0.0
  9
$EXTMAX
 10
472.288962
 20
287.518529
 30
0.0
  9
$LIMMIN
 10
0.0
 20
0.0
  9
$LIMMAX
 10
472.288962
 20
287.518529
  9
$ORTHOMODE
 70
     0
  9
$REGENMODE
 70
     1
  9
$FILLMODE
 70
     1
  9
$QTEXTMODE
 70
     0
  9
$MIRRTEXT
 70
     1
  9
$DRAGMODE
 70
     2
  9
$LTSCALE
 40
1.0
  9
$OSMODE
 70
     0
  9
$ATTMODE
 70
     1
  9
$TEXTSIZE
 40
0.2
  9
$TRACEWID
 40
0.05
  9
$TEXTSTYLE
  7
Standard
  9
$CLAYER
  8
0
  9
$CELTYPE
  6
Continuous
  9
$CECOLOR
 62
   256
  9
$CELTSCALE
 40
1.0
  9
$DELOBJ
 70
     1
  9
$DISPSILH
 70
     0
  9
$DIMSCALE
 40
1.0
  9
$DIMASZ
 40
0.18
  9
$DIMEXO
 40
0.0625
  9
$DIMDLI
 40
0.38
  9
$DIMRND
 40
0.0
  9
$DIMDLE
 40
0.0
  9
$DIMEXE
 40
0.18
  9
$DIMTP
 40
0.0
  9
$DIMTM
 40
0.0
  9
$DIMTXT
 40
0.18
  9
$DIMCEN
 40
0.09
  9
$DIMTSZ
 40
0.0
  9
$DIMTOL
 70
     0
  9
$DIMLIM
 70
     0
  9
$DIMTIH
 70
     1
  9
$DIMTOH
 70
     1
  9
$DIMSE1
 70
     0
  9
$DIMSE2
 70
     0
  9
$DIMTAD
 70
     0
  9
$DIMZIN
 70
     0
  9
$DIMBLK
  1

  9
$DIMASO
 70
     1
  9
$DIMSHO
 70
     1
  9
$DIMPOST
  1

  9
$DIMAPOST
  1

  9
$DIMALT
 70
     0
  9
$DIMALTD
 70
     2
  9
$DIMALTF
 40
25.4
  9
$DIMLFAC
 40
1.0
  9
$DIMTOFL
 70
     0
  9
$DIMTVP
 40
0.0
  9
$DIMTIX
 70
     0
  9
$DIMSOXD
 70
     0
  9
$DIMSAH
 70
     0
  9
$DIMBLK1
  1

  9
$DIMBLK2
  1

  9
$DIMSTYLE
  2
Standard
  9
$DIMCLRD
 70
     0
  9
$DIMCLRE
 70
     0
  9
$DIMCLRT
 70
     0
  9
$DIMTFAC
 40
1.0
  9
$DIMGAP
 40
0.09
  9
$DIMJUST
 70
     0
  9
$DIMSD1
 70
     0
  9
$DIMSD2
 70
     0
  9
$DIMTOLJ
 70
     1
  9
$DIMTZIN
 70
     0
  9
$DIMALTZ
 70
     0
  9
$DIMALTTZ
 70
     0
  9
$DIMFIT
 70
     3
  9
$DIMUPT
 70
     0
  9
$DIMUNIT
 70
     2
  9
$DIMDEC
 70
     4
  9
$DIMTDEC
 70
     4
  9
$DIMALTU
 70
     2
  9
$DIMALTTD
 70
     2
  9
$DIMTXSTY
  7
Standard
  9
$DIMAUNIT
 70
     0
  9
$LUNITS
 70
     2
  9
$LUPREC
 70
     4
  9
$SKETCHINC
 40
0.1
  9
$FILLETRAD
 40
0.0
  9
$AUNITS
 70
     0
  9
$AUPREC
 70
     0
  9
$MENU
  1
acad
  9
$ELEVATION
 40
0.0
  9
$PELEVATION
 40
0.0
  9
$THICKNESS
 40
0.0
  9
$LIMCHECK
 70
     0
  9
$BLIPMODE
 70
     1
  9
$CHAMFERA
 40
0.0
  9
$CHAMFERB
 40
0.0
  9
$CHAMFERC
 40
0.0
  9
$CHAMFERD
 40
0.0
  9
$SKPOLY
 70
     0
  9
$TDCREATE
 40
0.000000000
  9
$TDUPDATE
 40
0.000000000
  9
$TDINDWG
 40
0.0000000000
  9
$TDUSRTIMER
 40
0.0000000000
  9
$USRTIMER
 70
     1
  9
$ANGBASE
 50
0.0
  9
$ANGDIR
 70
     0
  9
$PDMODE
 70
     0
  9
$PDSIZE
 40
0.0
  9
$PLINEWID
 40
0.0
  9
$COORDS
 70
     0
  9
$SPLFRAME
 70
     0
  9
$SPLINETYPE
 70
     6
  9
$SPLINESEGS
 70
     8
  9
$ATTDIA
 70
     0
  9
$ATTREQ
 70
     1
  9
$HANDLING
 70
     1
  9
$HANDSEED
  5
E0
  9
$SURFTAB1
 70
     6
  9
$SURFTAB2
 70
     6
  9
$SURFTYPE
 70
     6
  9
$SURFU
 70
     6
  9
$SURFV
 70
     6
  9
$UCSNAME
  2

  9
$UCSORG
 10
0.0
 20
0.0
 30
0.0
  9
$UCSXDIR
 10
1.0
 20
0.0
 30
0.0
  9
$UCSYDIR
 10
0.0
 20
1.0
 30
0.0
  9
$PUCSNAME
  2

  9
$PUCSORG
 10
0.0
 20
0.0
 30
0.0
  9
$PUCSXDIR
 10
1.0
 20
0.0
 30
0.0
  9
$PUCSYDIR
 10
0.0
 20
1.0
 30
0.0
  9
$USERI1
 70
     0
  9
$USERI2
 70
     0
  9
$USERI3
 70
     0
  9
$USERI4
 70
     0
  9
$USERI5
 70
     0
  9
$USERR1
 40
0.0
  9
$USERR2
 40
0.0
  9
$USERR3
 40
0.0
  9
$USERR4
 40
0.0
  9
$USERR5
 40
0.0
  9
$WORLDVIEW
 70
     1
  9
$SHADEDGE
 70
     3
  9
$SHADEDIF
 70
    70
  9
$TILEMODE
 70
     1
  9
$MAXACTVP
 70
    16
  9
$PINSBASE
 10
0.0
 20
0.0
 30
0.0
  9
$PLIMCHECK
 70
     0
  9
$PEXTMIN
 10
1.000000E+20
 20
1.000000E+20
 30
1.000000E+20
  9
$PEXTMAX
 10
-1.000000E+20
 20
-1.000000E+20
 30
-1.000000E+20
  9
$PLIMMIN
 10
0.0
 20
0.0
  9
$PLIMMAX
 10
12.0
 20
9.0
  9
$UNITMODE
 70
     0
  9
$VISRETAIN
 70
     0
  9
$PLINEGEN
 70
     1
  9
$PSLTSCALE
 70
     0
  9
$TREEDEPTH
 70
  3020
  9
$PICKSTYLE
 70
     1
  9
$CMLSTYLE
  2
Standard
  9
$CMLJUST
 70
     0
  9
$CMLSCALE
 40
1.0
  9
$PROXYGRAPHICS
 70
     0
  9
$MEASUREMENT
 70
     0
  0
ENDSEC
  0
SECTION
  2
CLASSES
  0
CLASS
  1
LWPOLYLINE
  2
AcDbPolyline
  3
"AutoCAD"
 90
        0
280
     0
281
     1
  0
CLASS
  1
IMAGE
  2
AcDbRasterImage
  3
ISM
 90
      127
280
     0
281
     1
  0
CLASS
  1
OLE2FRAME
  2
AcDbOle2Frame
  3
""
 90
        0
280
     0
281
     1
  0
CLASS
  1
HATCH
  2
AcDbHatch
  3
"ACAD_SEDONA"
 90
        0
280
     0
281
     1
  0
CLASS
  1
DICTIONARYVAR
  2
AcDbDictionaryVar
  3
"AutoCAD"
 90
        0
280
     0
281
     0
  0
CLASS
  1
RASTERVARIABLES
  2
AcDbRasterVariables
  3
ISM
 90
        0
280
     0
281
     0
  0
CLASS
  1
IMAGEDEF
  2
AcDbRasterImageDef
  3
ISM
 90
        0
280
     0
281
     0
  0
CLASS
  1
IMAGEDEF_REACTOR
  2
AcDbRasterImageDefReactor
  3
ISM
 90
        1
280
     0
281
     0
  0
CLASS
  1
IDBUFFER
  2
AcDbIdBuffer
  3
"Acad"
 90
        0
280
     0
281
     0
  0
CLASS
  1
SPATIAL_FILTER
  2
AcDbSpatialFilter
  3
"Acad"
 90
        0
280
     0
281
     0
  0
CLASS
  1
XRECORD
  2
AcDbXrecord
  3
"<Built In>"
 90
        0
280
     0
281
     0
  0
CLASS
  1
SORTENTSTABLE
  2
AcDbSortentsTable
  3
"AutoCAD"
 90
        0
280
     0
281
     0
  0
CLASS
  1
LAYER_INDEX
  2
AcDbLayerIndex
  3
"Acad"
 90
        0
280
     0
281
     0
  0
CLASS
  1
SPATIAL_INDEX
  2
AcDbSpatialIndex
  3
"Acad"
 90
        0
280
     0
281
     0
  0
CLASS
  1
OBJECT_PTR
  2
CAseDLPNTableRecord
  3
"ASE-LPNTableRecord"
 90
        1
280
     0
281
     0
  0
CLASS
  1
LAYOUT
  2
AcDbLayout
  3
"AutoCAD 2000"
 90
        0
280
     0
281
     0
  0
CLASS
  1
PLOTSETTINGS
  2
AcDbPlotSettings
  3
"AutoCAD 2000"
 90
        0
280
     0
281
     0
  0
CLASS
  1
ACDBDICTIONARYWDFLT
  2
AcDbDictionaryWithDefault
  3
"AutoCAD 2000"
 90
        0
280
     0
281
     0
  0
CLASS
  1
ACDBPLACEHOLDER
  2
AcDbPlaceHolder
  3
"AutoCAD 2000"
 90
        0
280
     0
281
     0
  0
CLASS
  1
VBA_PROJECT
  2
AcDbVbaProject
  3
"acadvba"
 90
        0
280
     0
281
     0
  0
CLASS
  1
WIPEOUT
  2
AcDbWipeout
  3
WipeOut|AutoCAD Express Tool|expresstools@autodesk.com
 90
      127
280
     0
281
     1
  0
CLASS
  1
WIPEOUTVARIABLES
  2
AcDbWipeoutVariables
  3
WipeOut|AutoCAD Express Tool|expresstools@autodesk.com
 90
        0
280
     0
281
     0
  0
CLASS
  1
RTEXT
  2
RText
  3
RText|AutoCAD Express Tool|expresstools@autodesk.com
 90
        0
280
     0
281
     1
  0
CLASS
  1
ARCALIGNEDTEXT
  2
AcDbArcAlignedText
  3
ATEXT|AutoCAD Express Tool|expresstools@autodesk.com
 90
        0
280
     0
281
     1
  0
ENDSEC
  0
SECTION
  2
TABLES
  0
TABLE
  2
VPORT
  5
7
100
AcDbSymbolTable
 70
     1
  0
VPORT
  5
15
100
AcDbSymbolTableRecord
100
AcDbViewportTableRecord
  2
*ACTIVE
 70
     0
 10
0.0
 20
0.0
 11
1.0
 21
1.0
 12
236.144481
 22
143.759265
 13
0.0
 23
0.0
 14
10.0
 24
10.0
 15
10.0
 25
10.0
 16
0.0
 26
0.0
 36
1.0
 17
0.0
 27
0.0
 37
0.0
 40
287.518529
 41
1.642638
 42
50.0
 43
0.0
 44
0.0
 50
0.0
 51
0.0
 71
     0
 72
   100
 73
     1
 74
     1
 75
     0
 76
     0
 77
     0
 78
     0
  0
ENDTAB
  0
TABLE
  2
LTYPE
  5
4
100
AcDbSymbolTable
 70
    24
  0
LTYPE
  5
11
100
AcDbSymbolTableRecord
100
AcDbLinetypeTableRecord
  2
ByBlock
 70
    64
  3

 72
    65
 73
     0
 40
0.0
  0
LTYPE
  5
12
100
AcDbSymbolTableRecord
100
AcDbLinetypeTableRecord
  2
ByLayer
 70
    64
  3

 72
    65
 73
     0
 40
0.0
  0
LTYPE
  5
13
100
AcDbSymbolTableRecord
100
AcDbLinetypeTableRecord
  2
Continuous
 70
    64
  3
Solid line
 72
    65
 73
     0
 40
0.0
  0
LTYPE
  5
1D
100
AcDbSymbolTableRecord
100
AcDbLinetypeTableRecord
  2
DOT
 70
    64
  3
Dot . . . . . . . . . . . . . . . . . . . . . .
 72
    65
 73
     2
 40
6.35
 49
0.35
 74
     0
 49
-6.0
 74
     0
  0
LTYPE
  5
1E
100
AcDbSymbolTableRecord
100
AcDbLinetypeTableRecord
  2
DASHED
 70
    64
  3
Dashed __ __ __ __ __ __ __ __ __ __ __ __ __ _
 72
    65
 73
     2
 40
12.7
 49
6.35
 74
     0
 49
-6.35
 74
     0
  0
LTYPE
  5
1F
100
AcDbSymbolTableRecord
100
AcDbLinetypeTableRecord
  2
DASHDOT
 70
    64
  3
Dash dot __ . __ . __ . __ . __ . __ . __ . __
 72
    65
 73
     4
 40
25.4
 49
12.7
 74
     0
 49
-6.0
 74
     0
 49
0.7
 74
     0
 49
-6.0
 74
     0
  0
LTYPE
  5
20
100
AcDbSymbolTableRecord
100
AcDbLinetypeTableRecord
  2
DIVIDE
 70
    64
  3
Divide ____ . . ____ . . ____ . . ____ . . ____
 72
    65
 73
     6
 40
31.75
 49
12.7
 74
     0
 49
-6.0
 74
     0
 49
0.875
 74
     0
 49
-6.0
 74
     0
 49
0.875
 74
     0
 49
-6.0
 74
     0
  0
LTYPE
  5
21
100
AcDbSymbolTableRecord
100
AcDbLinetypeTableRecord
  2
HIDDEN
 70
    64
  3
Hidden __ __ __ __ __ __ __ __ __ __ __ __ __ _
 72
    65
 73
     2
 40
9.525
 49
6.35
 74
     0
 49
-3.175
 74
     0
  0
LTYPE
  5
22
100
AcDbSymbolTableRecord
100
AcDbLinetypeTableRecord
  2
CENTER
 70
    64
  3
Center ____ _ ____ _ ____ _ ____ _ ____ _ ____
 72
    65
 73
     4
 40
50.8
 49
31.75
 74
     0
 49
-6.35
 74
     0
 49
6.35
 74
     0
 49
-6.35
 74
     0
  0
LTYPE
  5
23
100
AcDbSymbolTableRecord
100
AcDbLinetypeTableRecord
  2
PHANTOM
 70
    64
  3
Phantom ______  __  __  ______  __  __  ______
 72
    65
 73
     6
 40
63.5
 49
31.75
 74
     0
 49
-6.35
 74
     0
 49
6.35
 74
     0
 49
-6.35
 74
     0
 49
6.35
 74
     0
 49
-6.35
 74
     0
  0
LTYPE
  5
24
100
AcDbSymbolTableRecord
100
AcDbLinetypeTableRecord
  2
ACAD_ISO02W100
 70
    64
  3
ISO dash __ __ __ __ __ __ __ __ __ __ __ __ __
 72
    65
 73
     2
 40
15.0
 49
12.0
 74
     0
 49
-3.0
 74
     0
  0
LTYPE
  5
25
100
AcDbSymbolTableRecord
100
AcDbLinetypeTableRecord
  2
ACAD_ISO03W100
 70
    64
  3
ISO dash space __ __ __ __ __ __ __ __ __ __ __ __ __ __
 72
    65
 73
     2
 40
30.0
 49
12.0
 74
     0
 49
-18.0
 74
     0
  0
LTYPE
  5
26
100
AcDbSymbolTableRecord
100
AcDbLinetypeTableRecord
  2
ACAD_ISO04W100
 70
    64
  3
ISO long-dash dot ____ . ____ . ____ . ____ . _
 72
    65
 73
     4
 40
30.0
 49
24.0
 74
     0
 49
-3.0
 74
     0
 49
0.0
 74
     0
 49
-3.0
 74
     0
  0
LTYPE
  5
27
100
AcDbSymbolTableRecord
100
AcDbLinetypeTableRecord
  2
ACAD_ISO05W100
 70
    64
  3
ISO long-dash double-dot ____ .. ____ .. ____ .
 72
    65
 73
     6
 40
33.0
 49
24.0
 74
     0
 49
-3.0
 74
     0
 49
0.0
 74
     0
 49
-3.0
 74
     0
 49
0.0
 74
     0
 49
-3.0
 74
     0
  0
LTYPE
  5
28
100
AcDbSymbolTableRecord
100
AcDbLinetypeTableRecord
  2
ACAD_ISO06W100
 70
    64
  3
ISO long-dash triple-dot ____ ... ____ ... ____
 72
    65
 73
     8
 40
36.0
 49
24.0
 74
     0
 49
-3.0
 74
     0
 49
0.0
 74
     0
 49
-3.0
 74
     0
 49
0.0
 74
     0
 49
-3.0
 74
     0
 49
0.0
 74
     0
 49
-3.0
 74
     0
  0
LTYPE
  5
29
100
AcDbSymbolTableRecord
100
AcDbLinetypeTableRecord
  2
ACAD_ISO07W100
 70
    64
  3
ISO dot . . . . . . . . . . . . . . . . . . . .
 72
    65
 73
     2
 40
3.0
 49
0.0
 74
     0
 49
-3.0
 74
     0
  0
LTYPE
  5
2A
100
AcDbSymbolTableRecord
100
AcDbLinetypeTableRecord
  2
ACAD_ISO08W100
 70
    64
  3
ISO long-dash short-dash ____ __ ____ __ ____ _
 72
    65
 73
     4
 40
36.0
 49
24.0
 74
     0
 49
-3.0
 74
     0
 49
6.0
 74
     0
 49
-3.0
 74
     0
  0
LTYPE
  5
2B
100
AcDbSymbolTableRecord
100
AcDbLinetypeTableRecord
  2
ACAD_ISO09W100
 70
    64
  3
ISO long-dash double-short-dash ____ __ __ ____
 72
    65
 73
     6
 40
45.0
 49
24.0
 74
     0
 49
-3.0
 74
     0
 49
6.0
 74
     0
 49
-3.0
 74
     0
 49
6.0
 74
     0
 49
-3.0
 74
     0
  0
LTYPE
  5
2C
100
AcDbSymbolTableRecord
100
AcDbLinetypeTableRecord
  2
ACAD_ISO10W100
 70
    64
  3
ISO dash dot __ . __ . __ . __ . __ . __ . __ .
 72
    65
 73
     4
 40
18.0
 49
12.0
 74
     0
 49
-3.0
 74
     0
 49
0.0
 74
     0
 49
-3.0
 74
     0
  0
LTYPE
  5
2D
100
AcDbSymbolTableRecord
100
AcDbLinetypeTableRecord
  2
ACAD_ISO11W100
 70
    64
  3
ISO double-dash dot __ __ . __ __ . __ __ . __ 
 72
    65
 73
     6
 40
33.0
 49
12.0
 74
     0
 49
-3.0
 74
     0
 49
12.0
 74
     0
 49
-3.0
 74
     0
 49
0.0
 74
     0
 49
-3.0
 74
     0
  0
LTYPE
  5
2E
100
AcDbSymbolTableRecord
100
AcDbLinetypeTableRecord
  2
ACAD_ISO12W100
 70
    64
  3
ISO dash double-dot __ . . __ . . __ . . __ . .
 72
    65
 73
     6
 40
21.0
 49
12.0
 74
     0
 49
-3.0
 74
     0
 49
0.0
 74
     0
 49
-3.0
 74
     0
 49
0.0
 74
     0
 49
-3.0
 74
     0
  0
LTYPE
  5
2F
100
AcDbSymbolTableRecord
100
AcDbLinetypeTableRecord
  2
ACAD_ISO13W100
 70
    64
  3
ISO double-dash double-dot __ __ . . __ __ . . 
 72
    65
 73
     8
 40
36.0
 49
12.0
 74
     0
 49
-3.0
 74
     0
 49
12.0
 74
     0
 49
-3.0
 74
     0
 49
0.0
 74
     0
 49
-3.0
 74
     0
 49
0.0
 74
     0
 49
-3.0
 74
     0
  0
LTYPE
  5
30
100
AcDbSymbolTableRecord
100
AcDbLinetypeTableRecord
  2
ACAD_ISO14W100
 70
    64
  3
ISO dash triple-dot __ . . . __ . . . __ . . . 
 72
    65
 73
     8
 40
24.0
 49
12.0
 74
     0
 49
-3.0
 74
     0
 49
0.0
 74
     0
 49
-3.0
 74
     0
 49
0.0
 74
     0
 49
-3.0
 74
     0
 49
0.0
 74
     0
 49
-3.0
 74
     0
  0
LTYPE
  5
31
100
AcDbSymbolTableRecord
100
AcDbLinetypeTableRecord
  2
ACAD_ISO15W100
 70
    64
  3
ISO double-dash double-dot __ __ . . __ __ . . 
 72
    65
 73
    10
 40
39.0
 49
12.0
 74
     0
 49
-3.0
 74
     0
 49
12.0
 74
     0
 49
-3.0
 74
     0
 49
0.0
 74
     0
 49
-3.0
 74
     0
 49
0.0
 74
     0
 49
-3.0
 74
     0
 49
0.0
 74
     0
 49
-3.0
 74
     0
  0
ENDTAB
  0
TABLE
  2
LAYER
  5
2
100
AcDbSymbolTable
 70
     1
  0
LAYER
  5
14
100
AcDbSymbolTableRecord
100
AcDbLayerTableRecord
  2
0
 70
     0
 62
     7
  6
Continuous
  0
ENDTAB
  0
TABLE
  2
STYLE
  5
3
100
AcDbSymbolTable
 70
     4
  0
STYLE
  5
17
100
AcDbSymbolTableRecord
100
AcDbTextStyleTableRecord
  2
Standard
 70
     0
 40
0.0
 41
1.0
 50
0.0
 71
     0
 42
0.0
  3
txt.shx
  4
bigfont.shx
  0
STYLE
  5
32
100
AcDbSymbolTableRecord
100
AcDbTextStyleTableRecord
  2
STANDARD_T
 70
     4
 40
0.0
 41
1.0
 50
0.0
 71
     0
 42
0.0
  3
txt.shx
  4
bigfont.shx
  0
STYLE
  5
33
100
AcDbSymbolTableRecord
100
AcDbTextStyleTableRecord
  2
FontTableH_0
 70
     0
 40
0.0
 41
1.0
 50
0.0
 71
     0
 42
0.0
  3
MS Gothic.ttf
  4

1001
ACAD
1000
MS Gothic
1071
    32817
  0
STYLE
  5
34
100
AcDbSymbolTableRecord
100
AcDbTextStyleTableRecord
  2
FontTableV_0
 70
     0
 40
0.0
 41
1.0
 50
0.0
 71
     0
 42
0.0
  3
@MS Gothic.ttf
  4

1001
ACAD
1000
@MS Gothic
1071
    32817
  0
ENDTAB
  0
TABLE
  2
VIEW
  5
5
100
AcDbSymbolTable
 70
     0
  0
ENDTAB
  0
TABLE
  2
UCS
  5
6
100
AcDbSymbolTable
 70
     0
  0
ENDTAB
  0
TABLE
  2
APPID
  5
8
100
AcDbSymbolTable
 70
     1
  0
APPID
  5
16
100
AcDbSymbolTableRecord
100
AcDbRegAppTableRecord
  2
ACAD
 70
     0
  0
ENDTAB
  0
TABLE
  2
DIMSTYLE
  5
9
100
AcDbSymbolTable
 70
     1
  0
DIMSTYLE
105
18
100
AcDbSymbolTableRecord
100
AcDbDimStyleTableRecord
  2
Standard
 70
     0
  3

  4

  5

  6

  7

 40
1.0
 41
0.18
 42
0.0625
 43
0.38
 44
0.18
 45
0.0
 46
0.0
 47
0.0
 48
0.0
 71
     0
 72
     0
 73
     1
 74
     1
 75
     0
 76
     0
 77
     0
 78
     0
140
0.18
141
0.09
142
0.0
143
25.4
144
1.0
145
0.0
146
1.0
147
0.09
170
     0
171
     2
172
     0
173
     0
174
     0
175
     0
176
     0
177
     0
178
     0
270
     2
271
     4
272
     4
273
     2
274
     2
275
     0
280
     0
281
     0
282
     0
283
     1
284
     0
285
     0
286
     0
287
     0
288
     0
340
17
  0
ENDTAB
  0
TABLE
  2
BLOCK_RECORD
  5
1
100
AcDbSymbolTable
 70
     0
  0
BLOCK_RECORD
  5
A
100
AcDbSymbolTableRecord
100
AcDbBlockTableRecord
  2
*MODEL_SPACE
  0
BLOCK_RECORD
  5
B
100
AcDbSymbolTableRecord
100
AcDbBlockTableRecord
  2
*PAPER_SPACE
  0
ENDTAB
  0
ENDSEC
  0
SECTION
  2
BLOCKS
  0
BLOCK
  5
D
100
AcDbEntity
  8
0
100
AcDbBlockBegin
  2
*MODEL_SPACE
 70
     0
 10
0.0
 20
0.0
 30
0.0
  3
*MODEL_SPACE
  1

  0
ENDBLK
  5
E
100
AcDbEntity
  8
0
100
AcDbBlockEnd
  0
BLOCK
  5
F
100
AcDbEntity
 67
     1
  8
0
100
AcDbBlockBegin
  2
*PAPER_SPACE
 70
     0
 10
0.0
 20
0.0
 30
0.0
  3
*PAPER_SPACE
  1

  0
ENDBLK
  5
10
100
AcDbEntity
 67
     1
  8
0
100
AcDbBlockEnd
  0
ENDSEC
  0
SECTION
  2
ENTITIES
  0
LINE
  5
35
100
AcDbEntity
  8
0
  6
Continuous
 62
     4
100
AcDbLine
 10
331.534678
 20
68.9507
 30
0.0
 11
331.534678
 21
48.910652
 31
0.0
  0
LINE
  5
36
100
AcDbEntity
  8
0
  6
Continuous
 62
     4
100
AcDbLine
 10
331.534678
 20
53.920664
 30
0.0
 11
374.477638
 21
53.920664
 31
0.0
  0
LINE
  5
37
100
AcDbEntity
  8
0
  6
Continuous
 62
     2
100
AcDbLine
 10
374.477638
 20
238.607877
 30
0.0
 11
374.477638
 21
48.910652
 31
0.0
  0
LINE
  5
38
100
AcDbEntity
  8
0
  6
Continuous
 62
     2
100
AcDbLine
 10
374.477638
 20
48.910652
 30
0.0
 11
97.811323
 21
48.910652
 31
0.0
  0
LINE
  5
39
100
AcDbEntity
  8
0
  6
Continuous
 62
     2
100
AcDbLine
 10
97.811323
 20
238.607877
 30
0.0
 11
97.811323
 21
48.910652
 31
0.0
  0
LINE
  5
3A
100
AcDbEntity
  8
0
  6
Continuous
 62
     2
100
AcDbLine
 10
374.477638
 20
238.607877
 30
0.0
 11
97.811323
 21
238.607877
 31
0.0
  0
LINE
  5
3B
100
AcDbEntity
  8
0
  6
Continuous
 62
     2
100
AcDbLine
 10
331.575388
 20
68.9507
 30
0.0
 11
374.477638
 21
68.9507
 31
0.0
  0
LINE
  5
3C
100
AcDbEntity
  8
0
  6
Continuous
 62
     4
100
AcDbLine
 10
331.575388
 20
58.930676
 30
0.0
 11
374.477638
 21
58.930676
 31
0.0
  0
LINE
  5
3D
100
AcDbEntity
  8
0
  6
Continuous
 62
     2
100
AcDbLine
 10
264.686648
 20
176.941127
 30
0.0
 11
264.686648
 21
124.44113
 31
0.0
  0
LINE
  5
3E
100
AcDbEntity
  8
0
  6
Continuous
 62
     2
100
AcDbLine
 10
279.686648
 20
176.941127
 30
0.0
 11
279.686648
 21
124.44113
 31
0.0
  0
LINE
  5
3F
100
AcDbEntity
  8
0
  6
Continuous
 62
     2
100
AcDbLine
 10
294.686648
 20
176.941127
 30
0.0
 11
294.686648
 21
124.44113
 31
0.0
  0
LINE
  5
40
100
AcDbEntity
  8
0
  6
Continuous
 62
     2
100
AcDbLine
 10
309.686648
 20
176.941127
 30
0.0
 11
309.686648
 21
124.44113
 31
0.0
  0
LINE
  5
41
100
AcDbEntity
  8
0
  6
Continuous
 62
     2
100
AcDbLine
 10
324.686648
 20
176.941127
 30
0.0
 11
324.686648
 21
124.44113
 31
0.0
  0
LINE
  5
42
100
AcDbEntity
  8
0
  6
Continuous
 62
     2
100
AcDbLine
 10
339.686648
 20
176.941127
 30
0.0
 11
339.686648
 21
124.44113
 31
0.0
  0
LINE
  5
43
100
AcDbEntity
  8
0
  6
Continuous
 62
     2
100
AcDbLine
 10
354.686648
 20
176.941127
 30
0.0
 11
354.686648
 21
124.44113
 31
0.0
  0
LINE
  5
44
100
AcDbEntity
  8
0
  6
Continuous
 62
     2
100
AcDbLine
 10
369.686648
 20
176.941127
 30
0.0
 11
369.686648
 21
124.44113
 31
0.0
  0
LINE
  5
45
100
AcDbEntity
  8
0
  6
Continuous
 62
     2
100
AcDbLine
 10
264.686648
 20
176.941127
 30
0.0
 11
369.686648
 21
176.941127
 31
0.0
  0
LINE
  5
46
100
AcDbEntity
  8
0
  6
Continuous
 62
     2
100
AcDbLine
 10
264.686648
 20
124.44113
 30
0.0
 11
369.686648
 21
124.44113
 31
0.0
  0
LINE
  5
47
100
AcDbEntity
  8
0
  6
Continuous
 62
     2
100
AcDbLine
 10
264.686648
 20
129.44113
 30
0.0
 11
369.686648
 21
129.44113
 31
0.0
  0
LINE
  5
48
100
AcDbEntity
  8
0
  6
Continuous
 62
     2
100
AcDbLine
 10
264.686648
 20
134.44113
 30
0.0
 11
369.686648
 21
134.44113
 31
0.0
  0
LINE
  5
49
100
AcDbEntity
  8
0
  6
Continuous
 62
     2
100
AcDbLine
 10
264.686648
 20
139.441127
 30
0.0
 11
369.686648
 21
139.441127
 31
0.0
  0
LINE
  5
4A
100
AcDbEntity
  8
0
  6
Continuous
 62
     2
100
AcDbLine
 10
264.686648
 20
144.441127
 30
0.0
 11
369.686648
 21
144.441127
 31
0.0
  0
LINE
  5
4B
100
AcDbEntity
  8
0
  6
Continuous
 62
     2
100
AcDbLine
 10
264.686648
 20
149.441127
 30
0.0
 11
369.686648
 21
149.441127
 31
0.0
  0
LINE
  5
4C
100
AcDbEntity
  8
0
  6
Continuous
 62
     2
100
AcDbLine
 10
264.686648
 20
154.441127
 30
0.0
 11
369.686648
 21
154.441127
 31
0.0
  0
LINE
  5
4D
100
AcDbEntity
  8
0
  6
Continuous
 62
     2
100
AcDbLine
 10
264.686648
 20
159.441127
 30
0.0
 11
369.686648
 21
159.441127
 31
0.0
  0
LINE
  5
4E
100
AcDbEntity
  8
0
  6
Continuous
 62
     2
100
AcDbLine
 10
264.686648
 20
164.441127
 30
0.0
 11
369.686648
 21
164.441127
 31
0.0
  0
LINE
  5
4F
100
AcDbEntity
  8
0
  6
Continuous
 62
     2
100
AcDbLine
 10
264.686648
 20
169.441127
 30
0.0
 11
369.686648
 21
169.441127
 31
0.0
  0
LINE
  5
50
100
AcDbEntity
  8
0
  6
Continuous
 62
     2
100
AcDbLine
 10
142.117309
 20
99.176892
 30
0.0
 11
197.217308
 21
99.176892
 31
0.0
  0
LINE
  5
51
100
AcDbEntity
  8
0
  6
Continuous
 62
     4
100
AcDbLine
 10
195.737378
 20
114.361217
 30
0.0
 11
195.777838
 21
114.401675
 31
0.0
  0
LINE
  5
52
100
AcDbEntity
  8
0
  6
Continuous
 62
     2
100
AcDbLine
 10
197.217308
 20
112.176892
 30
0.0
 11
197.217308
 21
99.176892
 31
0.0
  0
LINE
  5
53
100
AcDbEntity
  8
0
  6
Continuous
 62
     2
100
AcDbLine
 10
142.117309
 20
112.176892
 30
0.0
 11
142.117309
 21
99.176892
 31
0.0
  0
LINE
  5
54
100
AcDbEntity
  8
0
  6
Continuous
 62
     2
100
AcDbLine
 10
155.23762
 20
156.227427
 30
0.0
 11
143.667309
 21
128.294232
 31
0.0
  0
LINE
  5
55
100
AcDbEntity
  8
0
  6
Continuous
 62
     2
100
AcDbLine
 10
143.667309
 20
113.176892
 30
0.0
 11
143.667309
 21
128.294232
 31
0.0
  0
LINE
  5
56
100
AcDbEntity
  8
0
  6
Continuous
 62
     2
100
AcDbLine
 10
195.667308
 20
113.176892
 30
0.0
 11
195.667308
 21
117.950788
 31
0.0
  0
LINE
  5
57
100
AcDbEntity
  8
0
  6
Continuous
 62
     2
100
AcDbLine
 10
199.321088
 20
126.7718
 30
0.0
 11
195.667308
 21
117.950788
 31
0.0
  0
LINE
  5
58
100
AcDbEntity
  8
0
  6
Continuous
 62
     2
100
AcDbLine
 10
199.321088
 20
126.7718
 30
0.0
 11
155.23762
 21
156.227427
 31
0.0
  0
LINE
  5
59
100
AcDbEntity
  8
0
  6
Continuous
 62
     4
100
AcDbLine
 10
197.643758
 20
113.176892
 30
0.0
 11
219.667308
 21
113.176892
 31
0.0
  0
LINE
  5
5A
100
AcDbEntity
  8
0
  6
Continuous
 62
     2
100
AcDbLine
 10
143.667309
 20
128.294232
 30
0.0
 11
195.667308
 21
117.950788
 31
0.0
  0
LINE
  5
5B
100
AcDbEntity
  8
0
  6
Continuous
 62
     2
100
AcDbLine
 10
143.117309
 20
113.176892
 30
0.0
 11
196.217308
 21
113.176892
 31
0.0
  0
LINE
  5
5C
100
AcDbEntity
  8
0
  6
Continuous
 62
     4
100
AcDbLine
 10
131.419034
 20
130.730565
 30
0.0
 11
142.4392
 21
128.538518
 31
0.0
  0
LINE
  5
5D
100
AcDbEntity
  8
0
  6
Continuous
 62
     2
100
AcDbLine
 10
165.927193
 20
166.917007
 30
0.0
 11
155.23762
 21
156.227427
 31
0.0
  0
LINE
  5
5E
100
AcDbEntity
  8
0
  6
Continuous
 62
     2
100
AcDbLine
 10
202.696738
 20
130.147454
 30
0.0
 11
199.321088
 21
126.7718
 31
0.0
  0
LINE
  5
5F
100
AcDbEntity
  8
0
  6
Continuous
 62
     4
100
AcDbLine
 10
152.424118
 20
148.128477
 30
0.0
 11
146.507981
 21
133.845658
 31
0.0
  0
LINE
  5
60
100
AcDbEntity
  8
0
  6
Continuous
 62
     2
100
AcDbLine
 10
174.730673
 20
177.912517
 30
0.0
 11
213.692248
 21
138.950927
 31
0.0
  0
LINE
  5
61
100
AcDbEntity
  8
0
  6
Continuous
 62
     2
100
AcDbLine
 10
165.538285
 20
168.720127
 30
0.0
 11
174.730673
 21
177.912517
 31
0.0
  0
LINE
  5
62
100
AcDbEntity
  8
0
  6
Continuous
 62
     2
100
AcDbLine
 10
204.499868
 20
129.758546
 30
0.0
 11
213.692248
 21
138.950927
 31
0.0
  0
LINE
  5
63
100
AcDbEntity
  8
0
  6
Continuous
 62
     2
100
AcDbLine
 10
165.538285
 20
167.305907
 30
0.0
 11
203.085648
 21
129.758546
 31
0.0
  0
LINE
  5
64
100
AcDbEntity
  8
0
  6
DASHDOT
 62
     4
100
AcDbLine
 10
169.667309
 20
133.88757
 30
0.0
 11
197.978168
 21
162.198427
 31
0.0
  0
LINE
  5
65
100
AcDbEntity
  8
0
  6
DASHDOT
 62
     4
100
AcDbLine
 10
169.667309
 20
93.119199
 30
0.0
 11
169.667309
 21
133.88757
 31
0.0
  0
LINE
  5
66
100
AcDbEntity
  8
0
  6
Continuous
 62
     4
100
AcDbLine
 10
169.667309
 20
133.88757
 30
0.0
 11
172.596197
 21
133.238251
 31
0.0
  0
LINE
  5
67
100
AcDbEntity
  8
0
  6
Continuous
 62
     4
100
AcDbLine
 10
169.667309
 20
133.88757
 30
0.0
 11
172.197483
 21
132.275671
 31
0.0
  0
LINE
  5
68
100
AcDbEntity
  8
0
  6
Continuous
 62
     4
100
AcDbLine
 10
169.667309
 20
133.88757
 30
0.0
 11
219.667308
 21
113.176892
 31
0.0
  0
LINE
  5
69
100
AcDbEntity
  8
0
  6
Continuous
 62
     4
100
AcDbLine
 10
219.667308
 20
113.176892
 30
0.0
 11
204.003868
 21
128.840329
 31
0.0
  0
LINE
  5
6A
100
AcDbEntity
  8
0
  6
Continuous
 62
     4
100
AcDbLine
 10
176.911236
 20
177.901047
 30
0.0
 11
185.022346
 21
186.012157
 31
0.0
  0
LINE
  5
6B
100
AcDbEntity
  8
0
  6
Continuous
 62
     4
100
AcDbLine
 10
213.680788
 20
141.131497
 30
0.0
 11
221.791898
 21
149.242607
 31
0.0
  0
LINE
  5
6C
100
AcDbEntity
  8
0
  6
Continuous
 62
     4
100
AcDbLine
 10
118.667309
 20
133.88757
 30
0.0
 11
167.667309
 21
133.88757
 31
0.0
  0
LINE
  5
6D
100
AcDbEntity
  8
0
  6
Continuous
 62
     4
100
AcDbLine
 10
118.667309
 20
113.176892
 30
0.0
 11
140.731139
 21
113.176892
 31
0.0
  0
LINE
  5
6E
100
AcDbEntity
  8
0
  6
Continuous
 62
     4
100
AcDbLine
 10
118.667309
 20
99.176892
 30
0.0
 11
140.731139
 21
99.176892
 31
0.0
  0
LINE
  5
6F
100
AcDbEntity
  8
0
  6
Continuous
 62
     4
100
AcDbLine
 10
149.4145
 20
141.078147
 30
0.0
 11
152.343388
 21
140.428828
 31
0.0
  0
LINE
  5
70
100
AcDbEntity
  8
0
  6
Continuous
 62
     4
100
AcDbLine
 10
149.4145
 20
141.078147
 30
0.0
 11
151.944675
 21
139.466248
 31
0.0
  0
LINE
  5
71
100
AcDbEntity
  8
0
  6
Continuous
 62
     4
100
AcDbLine
 10
149.4145
 20
141.078147
 30
0.0
 11
158.96598
 21
137.121795
 31
0.0
  0
LINE
  5
72
100
AcDbEntity
  8
0
  6
Continuous
 62
     4
100
AcDbLine
 10
149.028765
 20
141.237927
 30
0.0
 11
146.099877
 21
141.887246
 31
0.0
  0
LINE
  5
73
100
AcDbEntity
  8
0
  6
Continuous
 62
     4
100
AcDbLine
 10
149.028765
 20
141.237927
 30
0.0
 11
146.498591
 21
142.849826
 31
0.0
  0
LINE
  5
74
100
AcDbEntity
  8
0
  6
Continuous
 62
     4
100
AcDbLine
 10
149.028765
 20
141.237927
 30
0.0
 11
139.691007
 21
145.105753
 31
0.0
  0
LINE
  5
75
100
AcDbEntity
  8
0
  6
Continuous
 62
     4
100
AcDbLine
 10
221.084788
 20
148.535497
 30
0.0
 11
218.627332
 21
150.256226
 31
0.0
  0
LINE
  5
76
100
AcDbEntity
  8
0
  6
Continuous
 62
     4
100
AcDbLine
 10
221.084788
 20
148.535497
 30
0.0
 11
219.364059
 21
150.992953
 31
0.0
  0
LINE
  5
77
100
AcDbEntity
  8
0
  6
Continuous
 62
     4
100
AcDbLine
 10
184.315236
 20
185.305049
 30
0.0
 11
186.772692
 21
183.58432
 31
0.0
  0
LINE
  5
78
100
AcDbEntity
  8
0
  6
Continuous
 62
     4
100
AcDbLine
 10
184.315236
 20
185.305049
 30
0.0
 11
186.035965
 21
182.847593
 31
0.0
  0
LINE
  5
79
100
AcDbEntity
  8
0
  6
Continuous
 62
     4
100
AcDbLine
 10
184.315236
 20
185.305049
 30
0.0
 11
221.084788
 21
148.535497
 31
0.0
  0
LINE
  5
7A
100
AcDbEntity
  8
0
  6
Continuous
 62
     4
100
AcDbLine
 10
129.711656
 20
113.176892
 30
0.0
 11
129.239296
 21
116.139471
 31
0.0
  0
LINE
  5
7B
100
AcDbEntity
  8
0
  6
Continuous
 62
     4
100
AcDbLine
 10
129.711656
 20
113.176892
 30
0.0
 11
130.281045
 21
116.122363
 31
0.0
  0
LINE
  5
7C
100
AcDbEntity
  8
0
  6
Continuous
 62
     4
100
AcDbLine
 10
131.440129
 20
130.726369
 30
0.0
 11
131.423944
 21
127.726412
 31
0.0
  0
LINE
  5
7D
100
AcDbEntity
  8
0
  6
Continuous
 62
     4
100
AcDbLine
 10
131.440129
 20
130.726369
 30
0.0
 11
130.398875
 21
127.912867
 31
0.0
  0
LINE
  5
7E
100
AcDbEntity
  8
0
  6
Continuous
 62
     4
100
AcDbLine
 10
119.667309
 20
133.88757
 30
0.0
 11
120.188254
 21
130.933147
 31
0.0
  0
LINE
  5
7F
100
AcDbEntity
  8
0
  6
Continuous
 62
     4
100
AcDbLine
 10
119.667309
 20
133.88757
 30
0.0
 11
119.146365
 21
130.933147
 31
0.0
  0
LINE
  5
80
100
AcDbEntity
  8
0
  6
Continuous
 62
     4
100
AcDbLine
 10
119.667309
 20
113.176892
 30
0.0
 11
119.146365
 21
116.131316
 31
0.0
  0
LINE
  5
81
100
AcDbEntity
  8
0
  6
Continuous
 62
     4
100
AcDbLine
 10
119.667309
 20
113.176892
 30
0.0
 11
120.188254
 21
116.131316
 31
0.0
  0
LINE
  5
82
100
AcDbEntity
  8
0
  6
Continuous
 62
     4
100
AcDbLine
 10
119.667309
 20
113.176892
 30
0.0
 11
119.667309
 21
133.88757
 31
0.0
  0
LINE
  5
83
100
AcDbEntity
  8
0
  6
Continuous
 62
     4
100
AcDbLine
 10
119.667309
 20
99.176892
 30
0.0
 11
119.146365
 21
102.131315
 31
0.0
  0
LINE
  5
84
100
AcDbEntity
  8
0
  6
Continuous
 62
     4
100
AcDbLine
 10
119.667309
 20
99.176892
 30
0.0
 11
120.188254
 21
102.131315
 31
0.0
  0
LINE
  5
85
100
AcDbEntity
  8
0
  6
Continuous
 62
     4
100
AcDbLine
 10
119.667309
 20
113.176892
 30
0.0
 11
120.188254
 21
110.222468
 31
0.0
  0
LINE
  5
86
100
AcDbEntity
  8
0
  6
Continuous
 62
     4
100
AcDbLine
 10
119.667309
 20
113.176892
 30
0.0
 11
119.146365
 21
110.222468
 31
0.0
  0
LINE
  5
87
100
AcDbEntity
  8
0
  6
Continuous
 62
     4
100
AcDbLine
 10
119.667309
 20
113.176892
 30
0.0
 11
119.667309
 21
99.176892
 31
0.0
  0
ARC
  5
88
100
AcDbEntity
  8
0
  6
Continuous
 62
     2
100
AcDbCircle
 10
196.217308
 20
112.176892
 30
0.0
 40
1.0
100
AcDbArc
 50
0.0
 51
90.0
  0
ARC
  5
89
100
AcDbEntity
  8
0
  6
Continuous
 62
     2
100
AcDbCircle
 10
143.117309
 20
112.176892
 30
0.0
 40
1.0
100
AcDbArc
 50
90.0
 51
180.0
  0
ARC
  5
8A
100
AcDbEntity
  8
0
  6
DASHDOT
 62
     4
100
AcDbCircle
 10
219.667308
 20
113.176892
 30
0.0
 40
50.0
100
AcDbArc
 50
135.0
 51
180.0
  0
ARC
  5
8B
100
AcDbEntity
  8
0
  6
Continuous
 62
     2
100
AcDbCircle
 10
166.245391
 20
168.013017
 30
0.0
 40
1.0
100
AcDbArc
 50
135.0
 51
225.0
  0
ARC
  5
8C
100
AcDbEntity
  8
0
  6
Continuous
 62
     2
100
AcDbCircle
 10
203.792758
 20
130.465652
 30
0.0
 40
1.0
100
AcDbArc
 50
225.0
 51
315.0
  0
ARC
  5
8D
100
AcDbEntity
  8
0
  6
Continuous
 62
     4
100
AcDbCircle
 10
219.667308
 20
113.176892
 30
0.0
 40
89.955652
100
AcDbArc
 50
168.75
 51
180.0
  0
TEXT
  5
8E
100
AcDbEntity
  8
0
 62
     7
100
AcDbText
 10
332.408778
 20
61.671955
 30
0.0
 40
4.0
  1
東都積水株式会社
 41
0.7695
  7
FontTableH_0
 72
     5
 11
364.408778
 21
61.671955
 31
0.0
100
AcDbText
  0
TEXT
  5
8F
100
AcDbEntity
  8
0
 62
     7
100
AcDbText
 10
268.896898
 20
171.137937
 30
0.0
 40
4.0
  1
呼称
 41
0.7695
  7
FontTableH_0
 72
     5
 11
276.896898
 21
171.137937
 31
0.0
100
AcDbText
  0
TEXT
  5
90
100
AcDbEntity
  8
0
 62
     7
100
AcDbText
 10
356.251078
 20
173.374407
 30
0.0
 40
3.0
  1
参考重量
 41
0.7695
  7
FontTableH_0
 72
     5
 11
368.251078
 21
173.374407
 31
0.0
100
AcDbText
  0
TEXT
  5
91
100
AcDbEntity
  8
0
 62
     7
100
AcDbText
 10
359.145348
 20
169.953917
 30
0.0
 40
3.0
  1
ｋｇ
 41
0.7695
  7
FontTableH_0
 72
     5
 11
365.145348
 21
169.953917
 31
0.0
100
AcDbText
  0
TEXT
  5
92
100
AcDbEntity
  8
0
 62
     7
100
AcDbText
 10
344.896898
 20
171.137937
 30
0.0
 40
4.0
  1
Ｔ
 41
0.7695
  7
FontTableH_0
 72
     5
 11
348.896898
 21
171.137937
 31
0.0
100
AcDbText
  0
TEXT
  5
93
100
AcDbEntity
  8
0
 62
     7
100
AcDbText
 10
315.396898
 20
171.137937
 30
0.0
 40
4.0
  1
Ｒ
 41
0.7695
  7
FontTableH_0
 72
     5
 11
319.396898
 21
171.137937
 31
0.0
100
AcDbText
  0
TEXT
  5
94
100
AcDbEntity
  8
0
 62
     7
100
AcDbText
 10
330.396898
 20
171.137937
 30
0.0
 40
4.0
  1
Ｌ
 41
0.7695
  7
FontTableH_0
 72
     5
 11
334.396898
 21
171.137937
 31
0.0
100
AcDbText
  0
TEXT
  5
95
100
AcDbEntity
  8
0
 62
     7
100
AcDbText
 10
300.396898
 20
171.137937
 30
0.0
 40
4.0
  1
Ｈ
 41
0.7695
  7
FontTableH_0
 72
     5
 11
304.396898
 21
171.137937
 31
0.0
100
AcDbText
  0
TEXT
  5
96
100
AcDbEntity
  8
0
 62
     7
100
AcDbText
 10
282.896898
 20
171.137937
 30
0.0
 40
4.0
  1
φＡ
 41
0.7695
  7
FontTableH_0
 72
     5
 11
290.896898
 21
171.137937
 31
0.0
100
AcDbText
  0
TEXT
  5
97
100
AcDbEntity
  8
0
 62
     7
100
AcDbText
 10
332.938578
 20
54.918913
 30
0.0
 40
3.0
  1
スリーブタイプ
 41
0.7695
  7
FontTableH_0
 72
     5
 11
353.938578
 21
54.918913
 31
0.0
100
AcDbText
  0
TEXT
  5
98
100
AcDbEntity
  8
0
 62
     7
100
AcDbText
 10
221.739638
 20
111.842445
 30
0.0
 40
4.0
  1
４５°
 41
0.7695
  7
FontTableH_0
 72
     5
 11
233.739638
 21
111.842445
 31
0.0
100
AcDbText
  0
TEXT
  5
99
100
AcDbEntity
  8
0
 62
     7
100
AcDbText
 10
202.334448
 20
121.952711
 30
0.0
 40
4.0
  1
Ｒ
 50
-45.0
 41
0.7695
  7
FontTableH_0
 72
     5
 11
205.162876
 21
119.124284
 31
0.0
100
AcDbText
  0
TEXT
  5
9A
100
AcDbEntity
  8
0
 62
     7
100
AcDbText
 10
141.827329
 20
144.425907
 30
0.0
 40
4.0
  1
Ｔ
 50
45.0
 41
0.7695
  7
FontTableH_0
 72
     5
 11
144.655757
 21
147.254334
 31
0.0
100
AcDbText
  0
TEXT
  5
9B
100
AcDbEntity
  8
0
 62
     7
100
AcDbText
 10
332.739108
 20
49.932211
 30
0.0
 40
3.0
  1
４５°エルボ
 41
0.7695
  7
FontTableH_0
 72
     5
 11
350.739108
 21
49.932211
 31
0.0
100
AcDbText
  0
TEXT
  5
9C
100
AcDbEntity
  8
0
 62
     7
100
AcDbText
 10
200.932245
 20
170.102253
 30
0.0
 40
4.0
  1
φＡ
 50
-45.0
 41
0.7695
  7
FontTableH_0
 72
     5
 11
206.5891
 21
164.445399
 31
0.0
100
AcDbText
  0
TEXT
  5
9D
100
AcDbEntity
  8
0
 62
     7
100
AcDbText
 10
128.740955
 20
118.23444
 30
0.0
 40
4.0
  1
11.25ﾟ
 50
83.983968
 41
0.7695
  7
FontTableH_0
 72
     5
 11
130.627476
 21
136.135307
 31
0.0
100
AcDbText
  0
TEXT
  5
9E
100
AcDbEntity
  8
0
 62
     7
100
AcDbText
 10
118.667309
 20
122.032231
 30
0.0
 40
5.0
  1
Ｈ
 50
90.0
 41
0.7695
  7
FontTableH_0
 72
     5
 11
118.667309
 21
127.032231
 31
0.0
100
AcDbText
  0
TEXT
  5
9F
100
AcDbEntity
  8
0
 62
     7
100
AcDbText
 10
118.667309
 20
104.676892
 30
0.0
 40
5.0
  1
Ｌ
 50
90.0
 41
0.7695
  7
FontTableH_0
 72
     5
 11
118.667309
 21
109.676892
 31
0.0
100
AcDbText
  0
TEXT
  5
A0
100
AcDbEntity
  8
0
 62
     7
100
AcDbText
 10
268.580908
 20
165.349397
 30
0.0
 40
3.0
  1
150
 41
0.7695
  7
FontTableH_0
 72
     5
 11
275.330908
 21
165.349397
 31
0.0
100
AcDbText
  0
TEXT
  5
A1
100
AcDbEntity
  8
0
 62
     7
100
AcDbText
 10
283.580908
 20
165.349397
 30
0.0
 40
3.0
  1
165
 41
0.7695
  7
FontTableH_0
 72
     5
 11
290.330908
 21
165.349397
 31
0.0
100
AcDbText
  0
TEXT
  5
A2
100
AcDbEntity
  8
0
 62
     7
100
AcDbText
 10
328.580908
 20
165.349397
 30
0.0
 40
3.0
  1
100
 41
0.7695
  7
FontTableH_0
 72
     5
 11
335.330908
 21
165.349397
 31
0.0
100
AcDbText
  0
TEXT
  5
A3
100
AcDbEntity
  8
0
 62
     7
100
AcDbText
 10
343.580908
 20
165.349397
 30
0.0
 40
3.0
  1
2.5
 41
0.7695
  7
FontTableH_0
 72
     5
 11
350.330908
 21
165.349397
 31
0.0
100
AcDbText
  0
TEXT
  5
A4
100
AcDbEntity
  8
0
 62
     7
100
AcDbText
 10
328.580908
 20
160.349397
 30
0.0
 40
3.0
  1
100
 41
0.7695
  7
FontTableH_0
 72
     5
 11
335.330908
 21
160.349397
 31
0.0
100
AcDbText
  0
TEXT
  5
A5
100
AcDbEntity
  8
0
 62
     7
100
AcDbText
 10
343.580908
 20
160.349397
 30
0.0
 40
3.0
  1
2.5
 41
0.7695
  7
FontTableH_0
 72
     5
 11
350.330908
 21
160.349397
 31
0.0
100
AcDbText
  0
TEXT
  5
A6
100
AcDbEntity
  8
0
 62
     7
100
AcDbText
 10
268.580908
 20
160.349397
 30
0.0
 40
3.0
  1
200
 41
0.7695
  7
FontTableH_0
 72
     5
 11
275.330908
 21
160.349397
 31
0.0
100
AcDbText
  0
TEXT
  5
A7
100
AcDbEntity
  8
0
 62
     7
100
AcDbText
 10
268.580908
 20
155.349397
 30
0.0
 40
3.0
  1
250
 41
0.7695
  7
FontTableH_0
 72
     5
 11
275.330908
 21
155.349397
 31
0.0
100
AcDbText
  0
TEXT
  5
A8
100
AcDbEntity
  8
0
 62
     7
100
AcDbText
 10
268.580908
 20
150.349397
 30
0.0
 40
3.0
  1
300
 41
0.7695
  7
FontTableH_0
 72
     5
 11
275.330908
 21
150.349397
 31
0.0
100
AcDbText
  0
TEXT
  5
A9
100
AcDbEntity
  8
0
 62
     7
100
AcDbText
 10
268.580908
 20
145.349397
 30
0.0
 40
3.0
  1
350
 41
0.7695
  7
FontTableH_0
 72
     5
 11
275.330908
 21
145.349397
 31
0.0
100
AcDbText
  0
TEXT
  5
AA
100
AcDbEntity
  8
0
 62
     7
100
AcDbText
 10
268.580908
 20
140.349397
 30
0.0
 40
3.0
  1
400
 41
0.7695
  7
FontTableH_0
 72
     5
 11
275.330908
 21
140.349397
 31
0.0
100
AcDbText
  0
TEXT
  5
AB
100
AcDbEntity
  8
0
 62
     7
100
AcDbText
 10
268.580908
 20
135.349406
 30
0.0
 40
3.0
  1
450
 41
0.7695
  7
FontTableH_0
 72
     5
 11
275.330908
 21
135.349406
 31
0.0
100
AcDbText
  0
TEXT
  5
AC
100
AcDbEntity
  8
0
 62
     7
100
AcDbText
 10
268.580908
 20
130.349406
 30
0.0
 40
3.0
  1
500
 41
0.7695
  7
FontTableH_0
 72
     5
 11
275.330908
 21
130.349406
 31
0.0
100
AcDbText
  0
TEXT
  5
AD
100
AcDbEntity
  8
0
 62
     7
100
AcDbText
 10
268.580908
 20
125.349406
 30
0.0
 40
3.0
  1
600
 41
0.7695
  7
FontTableH_0
 72
     5
 11
275.330908
 21
125.349406
 31
0.0
100
AcDbText
  0
TEXT
  5
AE
100
AcDbEntity
  8
0
 62
     7
100
AcDbText
 10
283.580908
 20
160.349397
 30
0.0
 40
3.0
  1
216
 41
0.7695
  7
FontTableH_0
 72
     5
 11
290.330908
 21
160.349397
 31
0.0
100
AcDbText
  0
TEXT
  5
AF
100
AcDbEntity
  8
0
 62
     7
100
AcDbText
 10
283.580908
 20
155.349397
 30
0.0
 40
3.0
  1
267
 41
0.7695
  7
FontTableH_0
 72
     5
 11
290.330908
 21
155.349397
 31
0.0
100
AcDbText
  0
TEXT
  5
B0
100
AcDbEntity
  8
0
 62
     7
100
AcDbText
 10
283.580908
 20
150.349397
 30
0.0
 40
3.0
  1
318
 41
0.7695
  7
FontTableH_0
 72
     5
 11
290.330908
 21
150.349397
 31
0.0
100
AcDbText
  0
TEXT
  5
B1
100
AcDbEntity
  8
0
 62
     7
100
AcDbText
 10
283.580908
 20
145.349397
 30
0.0
 40
3.0
  1
370
 41
0.7695
  7
FontTableH_0
 72
     5
 11
290.330908
 21
145.349397
 31
0.0
100
AcDbText
  0
TEXT
  5
B2
100
AcDbEntity
  8
0
 62
     7
100
AcDbText
 10
283.580908
 20
140.349397
 30
0.0
 40
3.0
  1
420
 41
0.7695
  7
FontTableH_0
 72
     5
 11
290.330908
 21
140.349397
 31
0.0
100
AcDbText
  0
TEXT
  5
B3
100
AcDbEntity
  8
0
 62
     7
100
AcDbText
 10
283.580908
 20
135.349406
 30
0.0
 40
3.0
  1
470
 41
0.7695
  7
FontTableH_0
 72
     5
 11
290.330908
 21
135.349406
 31
0.0
100
AcDbText
  0
TEXT
  5
B4
100
AcDbEntity
  8
0
 62
     7
100
AcDbText
 10
283.580908
 20
130.349406
 30
0.0
 40
3.0
  1
520
 41
0.7695
  7
FontTableH_0
 72
     5
 11
290.330908
 21
130.349406
 31
0.0
100
AcDbText
  0
TEXT
  5
B5
100
AcDbEntity
  8
0
 62
     7
100
AcDbText
 10
283.580908
 20
125.349406
 30
0.0
 40
3.0
  1
612
 41
0.7695
  7
FontTableH_0
 72
     5
 11
290.330908
 21
125.349406
 31
0.0
100
AcDbText
  0
TEXT
  5
B6
100
AcDbEntity
  8
0
 62
     7
100
AcDbText
 10
313.580908
 20
165.349397
 30
0.0
 40
3.0
  1
150
 41
0.7695
  7
FontTableH_0
 72
     5
 11
320.330908
 21
165.349397
 31
0.0
100
AcDbText
  0
TEXT
  5
B7
100
AcDbEntity
  8
0
 62
     7
100
AcDbText
 10
313.580908
 20
160.349397
 30
0.0
 40
3.0
  1
200
 41
0.7695
  7
FontTableH_0
 72
     5
 11
320.330908
 21
160.349397
 31
0.0
100
AcDbText
  0
TEXT
  5
B8
100
AcDbEntity
  8
0
 62
     7
100
AcDbText
 10
313.580908
 20
155.349397
 30
0.0
 40
3.0
  1
250
 41
0.7695
  7
FontTableH_0
 72
     5
 11
320.330908
 21
155.349397
 31
0.0
100
AcDbText
  0
TEXT
  5
B9
100
AcDbEntity
  8
0
 62
     7
100
AcDbText
 10
313.580908
 20
150.349397
 30
0.0
 40
3.0
  1
300
 41
0.7695
  7
FontTableH_0
 72
     5
 11
320.330908
 21
150.349397
 31
0.0
100
AcDbText
  0
TEXT
  5
BA
100
AcDbEntity
  8
0
 62
     7
100
AcDbText
 10
313.580908
 20
145.349397
 30
0.0
 40
3.0
  1
350
 41
0.7695
  7
FontTableH_0
 72
     5
 11
320.330908
 21
145.349397
 31
0.0
100
AcDbText
  0
TEXT
  5
BB
100
AcDbEntity
  8
0
 62
     7
100
AcDbText
 10
313.580908
 20
140.349397
 30
0.0
 40
3.0
  1
400
 41
0.7695
  7
FontTableH_0
 72
     5
 11
320.330908
 21
140.349397
 31
0.0
100
AcDbText
  0
TEXT
  5
BC
100
AcDbEntity
  8
0
 62
     7
100
AcDbText
 10
313.580908
 20
135.349406
 30
0.0
 40
3.0
  1
450
 41
0.7695
  7
FontTableH_0
 72
     5
 11
320.330908
 21
135.349406
 31
0.0
100
AcDbText
  0
TEXT
  5
BD
100
AcDbEntity
  8
0
 62
     7
100
AcDbText
 10
313.580908
 20
130.349406
 30
0.0
 40
3.0
  1
500
 41
0.7695
  7
FontTableH_0
 72
     5
 11
320.330908
 21
130.349406
 31
0.0
100
AcDbText
  0
TEXT
  5
BE
100
AcDbEntity
  8
0
 62
     7
100
AcDbText
 10
313.580908
 20
125.349406
 30
0.0
 40
3.0
  1
600
 41
0.7695
  7
FontTableH_0
 72
     5
 11
320.330908
 21
125.349406
 31
0.0
100
AcDbText
  0
TEXT
  5
BF
100
AcDbEntity
  8
0
 62
     7
100
AcDbText
 10
328.580908
 20
155.349397
 30
0.0
 40
3.0
  1
110
 41
0.7695
  7
FontTableH_0
 72
     5
 11
335.330908
 21
155.349397
 31
0.0
100
AcDbText
  0
TEXT
  5
C0
100
AcDbEntity
  8
0
 62
     7
100
AcDbText
 10
328.580908
 20
150.349397
 30
0.0
 40
3.0
  1
120
 41
0.7695
  7
FontTableH_0
 72
     5
 11
335.330908
 21
150.349397
 31
0.0
100
AcDbText
  0
TEXT
  5
C1
100
AcDbEntity
  8
0
 62
     7
100
AcDbText
 10
328.580908
 20
145.349397
 30
0.0
 40
3.0
  1
130
 41
0.7695
  7
FontTableH_0
 72
     5
 11
335.330908
 21
145.349397
 31
0.0
100
AcDbText
  0
TEXT
  5
C2
100
AcDbEntity
  8
0
 62
     7
100
AcDbText
 10
328.580908
 20
140.349397
 30
0.0
 40
3.0
  1
140
 41
0.7695
  7
FontTableH_0
 72
     5
 11
335.330908
 21
140.349397
 31
0.0
100
AcDbText
  0
TEXT
  5
C3
100
AcDbEntity
  8
0
 62
     7
100
AcDbText
 10
328.580908
 20
135.349406
 30
0.0
 40
3.0
  1
140
 41
0.7695
  7
FontTableH_0
 72
     5
 11
335.330908
 21
135.349406
 31
0.0
100
AcDbText
  0
TEXT
  5
C4
100
AcDbEntity
  8
0
 62
     7
100
AcDbText
 10
328.580908
 20
130.349406
 30
0.0
 40
3.0
  1
140
 41
0.7695
  7
FontTableH_0
 72
     5
 11
335.330908
 21
130.349406
 31
0.0
100
AcDbText
  0
TEXT
  5
C5
100
AcDbEntity
  8
0
 62
     7
100
AcDbText
 10
328.580908
 20
125.349406
 30
0.0
 40
3.0
  1
150
 41
0.7695
  7
FontTableH_0
 72
     5
 11
335.330908
 21
125.349406
 31
0.0
100
AcDbText
  0
TEXT
  5
C6
100
AcDbEntity
  8
0
 62
     7
100
AcDbText
 10
343.580908
 20
155.349397
 30
0.0
 40
3.0
  1
3.0
 41
0.7695
  7
FontTableH_0
 72
     5
 11
350.330908
 21
155.349397
 31
0.0
100
AcDbText
  0
TEXT
  5
C7
100
AcDbEntity
  8
0
 62
     7
100
AcDbText
 10
343.580908
 20
150.349397
 30
0.0
 40
3.0
  1
3.0
 41
0.7695
  7
FontTableH_0
 72
     5
 11
350.330908
 21
150.349397
 31
0.0
100
AcDbText
  0
TEXT
  5
C8
100
AcDbEntity
  8
0
 62
     7
100
AcDbText
 10
343.580908
 20
145.349397
 30
0.0
 40
3.0
  1
3.5
 41
0.7695
  7
FontTableH_0
 72
     5
 11
350.330908
 21
145.349397
 31
0.0
100
AcDbText
  0
TEXT
  5
C9
100
AcDbEntity
  8
0
 62
     7
100
AcDbText
 10
343.580908
 20
140.349397
 30
0.0
 40
3.0
  1
4.0
 41
0.7695
  7
FontTableH_0
 72
     5
 11
350.330908
 21
140.349397
 31
0.0
100
AcDbText
  0
TEXT
  5
CA
100
AcDbEntity
  8
0
 62
     7
100
AcDbText
 10
343.580908
 20
135.349406
 30
0.0
 40
3.0
  1
4.5
 41
0.7695
  7
FontTableH_0
 72
     5
 11
350.330908
 21
135.349406
 31
0.0
100
AcDbText
  0
TEXT
  5
CB
100
AcDbEntity
  8
0
 62
     7
100
AcDbText
 10
343.580908
 20
130.349406
 30
0.0
 40
3.0
  1
5.0
 41
0.7695
  7
FontTableH_0
 72
     5
 11
350.330908
 21
130.349406
 31
0.0
100
AcDbText
  0
TEXT
  5
CC
100
AcDbEntity
  8
0
 62
     7
100
AcDbText
 10
343.580908
 20
125.349406
 30
0.0
 40
3.0
  1
6.0
 41
0.7695
  7
FontTableH_0
 72
     5
 11
350.330908
 21
125.349406
 31
0.0
100
AcDbText
  0
TEXT
  5
CD
100
AcDbEntity
  8
0
 62
     7
100
AcDbText
 10
298.580908
 20
155.349397
 30
0.0
 40
3.0
  1
104
 41
0.7695
  7
FontTableH_0
 72
     5
 11
305.330908
 21
155.349397
 31
0.0
100
AcDbText
  0
TEXT
  5
CE
100
AcDbEntity
  8
0
 62
     7
100
AcDbText
 10
298.580908
 20
150.349397
 30
0.0
 40
3.0
  1
124
 41
0.7695
  7
FontTableH_0
 72
     5
 11
305.330908
 21
150.349397
 31
0.0
100
AcDbText
  0
TEXT
  5
CF
100
AcDbEntity
  8
0
 62
     7
100
AcDbText
 10
298.580908
 20
145.349397
 30
0.0
 40
3.0
  1
145
 41
0.7695
  7
FontTableH_0
 72
     5
 11
305.330908
 21
145.349397
 31
0.0
100
AcDbText
  0
TEXT
  5
D0
100
AcDbEntity
  8
0
 62
     7
100
AcDbText
 10
298.580908
 20
140.349397
 30
0.0
 40
3.0
  1
166
 41
0.7695
  7
FontTableH_0
 72
     5
 11
305.330908
 21
140.349397
 31
0.0
100
AcDbText
  0
TEXT
  5
D1
100
AcDbEntity
  8
0
 62
     7
100
AcDbText
 10
298.580908
 20
135.349406
 30
0.0
 40
3.0
  1
186
 41
0.7695
  7
FontTableH_0
 72
     5
 11
305.330908
 21
135.349406
 31
0.0
100
AcDbText
  0
TEXT
  5
D2
100
AcDbEntity
  8
0
 62
     7
100
AcDbText
 10
298.580908
 20
130.349406
 30
0.0
 40
3.0
  1
207
 41
0.7695
  7
FontTableH_0
 72
     5
 11
305.330908
 21
130.349406
 31
0.0
100
AcDbText
  0
TEXT
  5
D3
100
AcDbEntity
  8
0
 62
     7
100
AcDbText
 10
298.580908
 20
125.349406
 30
0.0
 40
3.0
  1
249
 41
0.7695
  7
FontTableH_0
 72
     5
 11
305.330908
 21
125.349406
 31
0.0
100
AcDbText
  0
TEXT
  5
D4
100
AcDbEntity
  8
0
 62
     7
100
AcDbText
 10
358.580908
 20
165.349397
 30
0.0
 40
3.0
  1
0.60
 41
0.7695
  7
FontTableH_0
 72
     5
 11
367.580908
 21
165.349397
 31
0.0
100
AcDbText
  0
TEXT
  5
D5
100
AcDbEntity
  8
0
 62
     7
100
AcDbText
 10
358.580908
 20
160.349397
 30
0.0
 40
3.0
  1
0.90
 41
0.7695
  7
FontTableH_0
 72
     5
 11
367.580908
 21
160.349397
 31
0.0
100
AcDbText
  0
TEXT
  5
D6
100
AcDbEntity
  8
0
 62
     7
100
AcDbText
 10
358.580908
 20
155.349397
 30
0.0
 40
3.0
  1
1.55
 41
0.7695
  7
FontTableH_0
 72
     5
 11
367.580908
 21
155.349397
 31
0.0
100
AcDbText
  0
TEXT
  5
D7
100
AcDbEntity
  8
0
 62
     7
100
AcDbText
 10
358.580908
 20
150.349397
 30
0.0
 40
3.0
  1
2.15
 41
0.7695
  7
FontTableH_0
 72
     5
 11
367.580908
 21
150.349397
 31
0.0
100
AcDbText
  0
TEXT
  5
D8
100
AcDbEntity
  8
0
 62
     7
100
AcDbText
 10
358.580908
 20
145.349397
 30
0.0
 40
3.0
  1
3.16
 41
0.7695
  7
FontTableH_0
 72
     5
 11
367.580908
 21
145.349397
 31
0.0
100
AcDbText
  0
TEXT
  5
D9
100
AcDbEntity
  8
0
 62
     7
100
AcDbText
 10
358.580908
 20
140.349397
 30
0.0
 40
3.0
  1
4.62
 41
0.7695
  7
FontTableH_0
 72
     5
 11
367.580908
 21
140.349397
 31
0.0
100
AcDbText
  0
TEXT
  5
DA
100
AcDbEntity
  8
0
 62
     7
100
AcDbText
 10
358.580908
 20
135.349406
 30
0.0
 40
3.0
  1
6.20
 41
0.7695
  7
FontTableH_0
 72
     5
 11
367.580908
 21
135.349406
 31
0.0
100
AcDbText
  0
TEXT
  5
DB
100
AcDbEntity
  8
0
 62
     7
100
AcDbText
 10
357.180908
 20
125.349406
 30
0.0
 40
3.0
  1
13.30
 41
0.7695
  7
FontTableH_0
 72
     5
 11
368.430908
 21
125.349406
 31
0.0
100
AcDbText
  0
TEXT
  5
DC
100
AcDbEntity
  8
0
 62
     7
100
AcDbText
 10
300.080908
 20
165.349397
 30
0.0
 40
3.0
  1
62
 41
0.7695
  7
FontTableH_0
 72
     5
 11
304.580908
 21
165.349397
 31
0.0
100
AcDbText
  0
TEXT
  5
DD
100
AcDbEntity
  8
0
 62
     7
100
AcDbText
 10
300.080908
 20
160.349397
 30
0.0
 40
3.0
  1
83
 41
0.7695
  7
FontTableH_0
 72
     5
 11
304.580908
 21
160.349397
 31
0.0
100
AcDbText
  0
TEXT
  5
DE
100
AcDbEntity
  8
0
 62
     7
100
AcDbText
 10
358.680908
 20
130.349406
 30
0.0
 40
3.0
  1
8.09
 41
0.7695
  7
FontTableH_0
 72
     5
 11
367.680908
 21
130.349406
 31
0.0
100
AcDbText
  0
ENDSEC
  0
SECTION
  2
OBJECTS
  0
DICTIONARY
  5
19
100
AcDbDictionary
  3
ACAD_GROUP
350
1A
  3
ACAD_MLINESTYLE
350
1B
  3
DWGPROPS
350
DF
  0
DICTIONARY
  5
1A
102
{ACAD_REACTORS
330
19
102
}
100
AcDbDictionary
  0
DICTIONARY
  5
1B
102
{ACAD_REACTORS
330
19
102
}
100
AcDbDictionary
  3
STANDARD
350
1C
  0
MLINESTYLE
  5
1C
102
{ACAD_REACTORS
330
1B
102
}
100
AcDbMlineStyle
  2
Standard
 70
     0
  3

 62
     0
 51
90.0
 52
90.0
 71
     2
 49
0.5
 62
   256
  6
ByLayer
 49
-0.5
 62
   256
  6
ByLayer
  0
XRECORD
  5
DF
100
AcDbXrecord
  1
DWGPROPS COOKIE
  2

  3

  4

  6

  7

  0
ENDSEC
  0
EOF
