  0
SECTION
  2
HEADER
  9
$ACADVER
  1
AC1014
  9
$ACADMAINTVER
 70
     0
  9
$DWGCODEPAGE
  3
ANSI_932
  9
$INSBASE
 10
0.0
 20
0.0
 30
0.0
  9
$EXTMIN
 10
0.0
 20
0.0
 30
0.0
  9
$EXTMAX
 10
472.288962
 20
287.518529
 30
0.0
  9
$LIMMIN
 10
0.0
 20
0.0
  9
$LIMMAX
 10
472.288962
 20
287.518529
  9
$ORTHOMODE
 70
     0
  9
$REGENMODE
 70
     1
  9
$FILLMODE
 70
     1
  9
$QTEXTMODE
 70
     0
  9
$MIRRTEXT
 70
     1
  9
$DRAGMODE
 70
     2
  9
$LTSCALE
 40
1.0
  9
$OSMODE
 70
     0
  9
$ATTMODE
 70
     1
  9
$TEXTSIZE
 40
0.2
  9
$TRACEWID
 40
0.05
  9
$TEXTSTYLE
  7
Standard
  9
$CLAYER
  8
0
  9
$CELTYPE
  6
Continuous
  9
$CECOLOR
 62
   256
  9
$CELTSCALE
 40
1.0
  9
$DELOBJ
 70
     1
  9
$DISPSILH
 70
     0
  9
$DIMSCALE
 40
1.0
  9
$DIMASZ
 40
0.18
  9
$DIMEXO
 40
0.0625
  9
$DIMDLI
 40
0.38
  9
$DIMRND
 40
0.0
  9
$DIMDLE
 40
0.0
  9
$DIMEXE
 40
0.18
  9
$DIMTP
 40
0.0
  9
$DIMTM
 40
0.0
  9
$DIMTXT
 40
0.18
  9
$DIMCEN
 40
0.09
  9
$DIMTSZ
 40
0.0
  9
$DIMTOL
 70
     0
  9
$DIMLIM
 70
     0
  9
$DIMTIH
 70
     1
  9
$DIMTOH
 70
     1
  9
$DIMSE1
 70
     0
  9
$DIMSE2
 70
     0
  9
$DIMTAD
 70
     0
  9
$DIMZIN
 70
     0
  9
$DIMBLK
  1

  9
$DIMASO
 70
     1
  9
$DIMSHO
 70
     1
  9
$DIMPOST
  1

  9
$DIMAPOST
  1

  9
$DIMALT
 70
     0
  9
$DIMALTD
 70
     2
  9
$DIMALTF
 40
25.4
  9
$DIMLFAC
 40
1.0
  9
$DIMTOFL
 70
     0
  9
$DIMTVP
 40
0.0
  9
$DIMTIX
 70
     0
  9
$DIMSOXD
 70
     0
  9
$DIMSAH
 70
     0
  9
$DIMBLK1
  1

  9
$DIMBLK2
  1

  9
$DIMSTYLE
  2
Standard
  9
$DIMCLRD
 70
     0
  9
$DIMCLRE
 70
     0
  9
$DIMCLRT
 70
     0
  9
$DIMTFAC
 40
1.0
  9
$DIMGAP
 40
0.09
  9
$DIMJUST
 70
     0
  9
$DIMSD1
 70
     0
  9
$DIMSD2
 70
     0
  9
$DIMTOLJ
 70
     1
  9
$DIMTZIN
 70
     0
  9
$DIMALTZ
 70
     0
  9
$DIMALTTZ
 70
     0
  9
$DIMFIT
 70
     3
  9
$DIMUPT
 70
     0
  9
$DIMUNIT
 70
     2
  9
$DIMDEC
 70
     4
  9
$DIMTDEC
 70
     4
  9
$DIMALTU
 70
     2
  9
$DIMALTTD
 70
     2
  9
$DIMTXSTY
  7
Standard
  9
$DIMAUNIT
 70
     0
  9
$LUNITS
 70
     2
  9
$LUPREC
 70
     4
  9
$SKETCHINC
 40
0.1
  9
$FILLETRAD
 40
0.0
  9
$AUNITS
 70
     0
  9
$AUPREC
 70
     0
  9
$MENU
  1
acad
  9
$ELEVATION
 40
0.0
  9
$PELEVATION
 40
0.0
  9
$THICKNESS
 40
0.0
  9
$LIMCHECK
 70
     0
  9
$BLIPMODE
 70
     1
  9
$CHAMFERA
 40
0.0
  9
$CHAMFERB
 40
0.0
  9
$CHAMFERC
 40
0.0
  9
$CHAMFERD
 40
0.0
  9
$SKPOLY
 70
     0
  9
$TDCREATE
 40
0.000000000
  9
$TDUPDATE
 40
0.000000000
  9
$TDINDWG
 40
0.0000000000
  9
$TDUSRTIMER
 40
0.0000000000
  9
$USRTIMER
 70
     1
  9
$ANGBASE
 50
0.0
  9
$ANGDIR
 70
     0
  9
$PDMODE
 70
     0
  9
$PDSIZE
 40
0.0
  9
$PLINEWID
 40
0.0
  9
$COORDS
 70
     0
  9
$SPLFRAME
 70
     0
  9
$SPLINETYPE
 70
     6
  9
$SPLINESEGS
 70
     8
  9
$ATTDIA
 70
     0
  9
$ATTREQ
 70
     1
  9
$HANDLING
 70
     1
  9
$HANDSEED
  5
18A
  9
$SURFTAB1
 70
     6
  9
$SURFTAB2
 70
     6
  9
$SURFTYPE
 70
     6
  9
$SURFU
 70
     6
  9
$SURFV
 70
     6
  9
$UCSNAME
  2

  9
$UCSORG
 10
0.0
 20
0.0
 30
0.0
  9
$UCSXDIR
 10
1.0
 20
0.0
 30
0.0
  9
$UCSYDIR
 10
0.0
 20
1.0
 30
0.0
  9
$PUCSNAME
  2

  9
$PUCSORG
 10
0.0
 20
0.0
 30
0.0
  9
$PUCSXDIR
 10
1.0
 20
0.0
 30
0.0
  9
$PUCSYDIR
 10
0.0
 20
1.0
 30
0.0
  9
$USERI1
 70
     0
  9
$USERI2
 70
     0
  9
$USERI3
 70
     0
  9
$USERI4
 70
     0
  9
$USERI5
 70
     0
  9
$USERR1
 40
0.0
  9
$USERR2
 40
0.0
  9
$USERR3
 40
0.0
  9
$USERR4
 40
0.0
  9
$USERR5
 40
0.0
  9
$WORLDVIEW
 70
     1
  9
$SHADEDGE
 70
     3
  9
$SHADEDIF
 70
    70
  9
$TILEMODE
 70
     1
  9
$MAXACTVP
 70
    16
  9
$PINSBASE
 10
0.0
 20
0.0
 30
0.0
  9
$PLIMCHECK
 70
     0
  9
$PEXTMIN
 10
1.000000E+20
 20
1.000000E+20
 30
1.000000E+20
  9
$PEXTMAX
 10
-1.000000E+20
 20
-1.000000E+20
 30
-1.000000E+20
  9
$PLIMMIN
 10
0.0
 20
0.0
  9
$PLIMMAX
 10
12.0
 20
9.0
  9
$UNITMODE
 70
     0
  9
$VISRETAIN
 70
     0
  9
$PLINEGEN
 70
     1
  9
$PSLTSCALE
 70
     0
  9
$TREEDEPTH
 70
  3020
  9
$PICKSTYLE
 70
     1
  9
$CMLSTYLE
  2
Standard
  9
$CMLJUST
 70
     0
  9
$CMLSCALE
 40
1.0
  9
$PROXYGRAPHICS
 70
     0
  9
$MEASUREMENT
 70
     0
  0
ENDSEC
  0
SECTION
  2
CLASSES
  0
CLASS
  1
LWPOLYLINE
  2
AcDbPolyline
  3
"AutoCAD"
 90
        0
280
     0
281
     1
  0
CLASS
  1
IMAGE
  2
AcDbRasterImage
  3
ISM
 90
      127
280
     0
281
     1
  0
CLASS
  1
OLE2FRAME
  2
AcDbOle2Frame
  3
""
 90
        0
280
     0
281
     1
  0
CLASS
  1
HATCH
  2
AcDbHatch
  3
"ACAD_SEDONA"
 90
        0
280
     0
281
     1
  0
CLASS
  1
DICTIONARYVAR
  2
AcDbDictionaryVar
  3
"AutoCAD"
 90
        0
280
     0
281
     0
  0
CLASS
  1
RASTERVARIABLES
  2
AcDbRasterVariables
  3
ISM
 90
        0
280
     0
281
     0
  0
CLASS
  1
IMAGEDEF
  2
AcDbRasterImageDef
  3
ISM
 90
        0
280
     0
281
     0
  0
CLASS
  1
IMAGEDEF_REACTOR
  2
AcDbRasterImageDefReactor
  3
ISM
 90
        1
280
     0
281
     0
  0
CLASS
  1
IDBUFFER
  2
AcDbIdBuffer
  3
"Acad"
 90
        0
280
     0
281
     0
  0
CLASS
  1
SPATIAL_FILTER
  2
AcDbSpatialFilter
  3
"Acad"
 90
        0
280
     0
281
     0
  0
CLASS
  1
XRECORD
  2
AcDbXrecord
  3
"<Built In>"
 90
        0
280
     0
281
     0
  0
CLASS
  1
SORTENTSTABLE
  2
AcDbSortentsTable
  3
"AutoCAD"
 90
        0
280
     0
281
     0
  0
CLASS
  1
LAYER_INDEX
  2
AcDbLayerIndex
  3
"Acad"
 90
        0
280
     0
281
     0
  0
CLASS
  1
SPATIAL_INDEX
  2
AcDbSpatialIndex
  3
"Acad"
 90
        0
280
     0
281
     0
  0
CLASS
  1
OBJECT_PTR
  2
CAseDLPNTableRecord
  3
"ASE-LPNTableRecord"
 90
        1
280
     0
281
     0
  0
CLASS
  1
LAYOUT
  2
AcDbLayout
  3
"AutoCAD 2000"
 90
        0
280
     0
281
     0
  0
CLASS
  1
PLOTSETTINGS
  2
AcDbPlotSettings
  3
"AutoCAD 2000"
 90
        0
280
     0
281
     0
  0
CLASS
  1
ACDBDICTIONARYWDFLT
  2
AcDbDictionaryWithDefault
  3
"AutoCAD 2000"
 90
        0
280
     0
281
     0
  0
CLASS
  1
ACDBPLACEHOLDER
  2
AcDbPlaceHolder
  3
"AutoCAD 2000"
 90
        0
280
     0
281
     0
  0
CLASS
  1
VBA_PROJECT
  2
AcDbVbaProject
  3
"acadvba"
 90
        0
280
     0
281
     0
  0
CLASS
  1
WIPEOUT
  2
AcDbWipeout
  3
WipeOut|AutoCAD Express Tool|expresstools@autodesk.com
 90
      127
280
     0
281
     1
  0
CLASS
  1
WIPEOUTVARIABLES
  2
AcDbWipeoutVariables
  3
WipeOut|AutoCAD Express Tool|expresstools@autodesk.com
 90
        0
280
     0
281
     0
  0
CLASS
  1
RTEXT
  2
RText
  3
RText|AutoCAD Express Tool|expresstools@autodesk.com
 90
        0
280
     0
281
     1
  0
CLASS
  1
ARCALIGNEDTEXT
  2
AcDbArcAlignedText
  3
ATEXT|AutoCAD Express Tool|expresstools@autodesk.com
 90
        0
280
     0
281
     1
  0
ENDSEC
  0
SECTION
  2
TABLES
  0
TABLE
  2
VPORT
  5
7
100
AcDbSymbolTable
 70
     1
  0
VPORT
  5
15
100
AcDbSymbolTableRecord
100
AcDbViewportTableRecord
  2
*ACTIVE
 70
     0
 10
0.0
 20
0.0
 11
1.0
 21
1.0
 12
236.144481
 22
143.759265
 13
0.0
 23
0.0
 14
10.0
 24
10.0
 15
10.0
 25
10.0
 16
0.0
 26
0.0
 36
1.0
 17
0.0
 27
0.0
 37
0.0
 40
287.518529
 41
1.642638
 42
50.0
 43
0.0
 44
0.0
 50
0.0
 51
0.0
 71
     0
 72
   100
 73
     1
 74
     1
 75
     0
 76
     0
 77
     0
 78
     0
  0
ENDTAB
  0
TABLE
  2
LTYPE
  5
4
100
AcDbSymbolTable
 70
    24
  0
LTYPE
  5
11
100
AcDbSymbolTableRecord
100
AcDbLinetypeTableRecord
  2
ByBlock
 70
    64
  3

 72
    65
 73
     0
 40
0.0
  0
LTYPE
  5
12
100
AcDbSymbolTableRecord
100
AcDbLinetypeTableRecord
  2
ByLayer
 70
    64
  3

 72
    65
 73
     0
 40
0.0
  0
LTYPE
  5
13
100
AcDbSymbolTableRecord
100
AcDbLinetypeTableRecord
  2
Continuous
 70
    64
  3
Solid line
 72
    65
 73
     0
 40
0.0
  0
LTYPE
  5
1D
100
AcDbSymbolTableRecord
100
AcDbLinetypeTableRecord
  2
DOT
 70
    64
  3
Dot . . . . . . . . . . . . . . . . . . . . . .
 72
    65
 73
     2
 40
6.35
 49
0.35
 74
     0
 49
-6.0
 74
     0
  0
LTYPE
  5
1E
100
AcDbSymbolTableRecord
100
AcDbLinetypeTableRecord
  2
DASHED
 70
    64
  3
Dashed __ __ __ __ __ __ __ __ __ __ __ __ __ _
 72
    65
 73
     2
 40
12.7
 49
6.35
 74
     0
 49
-6.35
 74
     0
  0
LTYPE
  5
1F
100
AcDbSymbolTableRecord
100
AcDbLinetypeTableRecord
  2
DASHDOT
 70
    64
  3
Dash dot __ . __ . __ . __ . __ . __ . __ . __
 72
    65
 73
     4
 40
25.4
 49
12.7
 74
     0
 49
-6.0
 74
     0
 49
0.7
 74
     0
 49
-6.0
 74
     0
  0
LTYPE
  5
20
100
AcDbSymbolTableRecord
100
AcDbLinetypeTableRecord
  2
DIVIDE
 70
    64
  3
Divide ____ . . ____ . . ____ . . ____ . . ____
 72
    65
 73
     6
 40
31.75
 49
12.7
 74
     0
 49
-6.0
 74
     0
 49
0.875
 74
     0
 49
-6.0
 74
     0
 49
0.875
 74
     0
 49
-6.0
 74
     0
  0
LTYPE
  5
21
100
AcDbSymbolTableRecord
100
AcDbLinetypeTableRecord
  2
HIDDEN
 70
    64
  3
Hidden __ __ __ __ __ __ __ __ __ __ __ __ __ _
 72
    65
 73
     2
 40
9.525
 49
6.35
 74
     0
 49
-3.175
 74
     0
  0
LTYPE
  5
22
100
AcDbSymbolTableRecord
100
AcDbLinetypeTableRecord
  2
CENTER
 70
    64
  3
Center ____ _ ____ _ ____ _ ____ _ ____ _ ____
 72
    65
 73
     4
 40
50.8
 49
31.75
 74
     0
 49
-6.35
 74
     0
 49
6.35
 74
     0
 49
-6.35
 74
     0
  0
LTYPE
  5
23
100
AcDbSymbolTableRecord
100
AcDbLinetypeTableRecord
  2
PHANTOM
 70
    64
  3
Phantom ______  __  __  ______  __  __  ______
 72
    65
 73
     6
 40
63.5
 49
31.75
 74
     0
 49
-6.35
 74
     0
 49
6.35
 74
     0
 49
-6.35
 74
     0
 49
6.35
 74
     0
 49
-6.35
 74
     0
  0
LTYPE
  5
24
100
AcDbSymbolTableRecord
100
AcDbLinetypeTableRecord
  2
ACAD_ISO02W100
 70
    64
  3
ISO dash __ __ __ __ __ __ __ __ __ __ __ __ __
 72
    65
 73
     2
 40
15.0
 49
12.0
 74
     0
 49
-3.0
 74
     0
  0
LTYPE
  5
25
100
AcDbSymbolTableRecord
100
AcDbLinetypeTableRecord
  2
ACAD_ISO03W100
 70
    64
  3
ISO dash space __ __ __ __ __ __ __ __ __ __ __ __ __ __
 72
    65
 73
     2
 40
30.0
 49
12.0
 74
     0
 49
-18.0
 74
     0
  0
LTYPE
  5
26
100
AcDbSymbolTableRecord
100
AcDbLinetypeTableRecord
  2
ACAD_ISO04W100
 70
    64
  3
ISO long-dash dot ____ . ____ . ____ . ____ . _
 72
    65
 73
     4
 40
30.0
 49
24.0
 74
     0
 49
-3.0
 74
     0
 49
0.0
 74
     0
 49
-3.0
 74
     0
  0
LTYPE
  5
27
100
AcDbSymbolTableRecord
100
AcDbLinetypeTableRecord
  2
ACAD_ISO05W100
 70
    64
  3
ISO long-dash double-dot ____ .. ____ .. ____ .
 72
    65
 73
     6
 40
33.0
 49
24.0
 74
     0
 49
-3.0
 74
     0
 49
0.0
 74
     0
 49
-3.0
 74
     0
 49
0.0
 74
     0
 49
-3.0
 74
     0
  0
LTYPE
  5
28
100
AcDbSymbolTableRecord
100
AcDbLinetypeTableRecord
  2
ACAD_ISO06W100
 70
    64
  3
ISO long-dash triple-dot ____ ... ____ ... ____
 72
    65
 73
     8
 40
36.0
 49
24.0
 74
     0
 49
-3.0
 74
     0
 49
0.0
 74
     0
 49
-3.0
 74
     0
 49
0.0
 74
     0
 49
-3.0
 74
     0
 49
0.0
 74
     0
 49
-3.0
 74
     0
  0
LTYPE
  5
29
100
AcDbSymbolTableRecord
100
AcDbLinetypeTableRecord
  2
ACAD_ISO07W100
 70
    64
  3
ISO dot . . . . . . . . . . . . . . . . . . . .
 72
    65
 73
     2
 40
3.0
 49
0.0
 74
     0
 49
-3.0
 74
     0
  0
LTYPE
  5
2A
100
AcDbSymbolTableRecord
100
AcDbLinetypeTableRecord
  2
ACAD_ISO08W100
 70
    64
  3
ISO long-dash short-dash ____ __ ____ __ ____ _
 72
    65
 73
     4
 40
36.0
 49
24.0
 74
     0
 49
-3.0
 74
     0
 49
6.0
 74
     0
 49
-3.0
 74
     0
  0
LTYPE
  5
2B
100
AcDbSymbolTableRecord
100
AcDbLinetypeTableRecord
  2
ACAD_ISO09W100
 70
    64
  3
ISO long-dash double-short-dash ____ __ __ ____
 72
    65
 73
     6
 40
45.0
 49
24.0
 74
     0
 49
-3.0
 74
     0
 49
6.0
 74
     0
 49
-3.0
 74
     0
 49
6.0
 74
     0
 49
-3.0
 74
     0
  0
LTYPE
  5
2C
100
AcDbSymbolTableRecord
100
AcDbLinetypeTableRecord
  2
ACAD_ISO10W100
 70
    64
  3
ISO dash dot __ . __ . __ . __ . __ . __ . __ .
 72
    65
 73
     4
 40
18.0
 49
12.0
 74
     0
 49
-3.0
 74
     0
 49
0.0
 74
     0
 49
-3.0
 74
     0
  0
LTYPE
  5
2D
100
AcDbSymbolTableRecord
100
AcDbLinetypeTableRecord
  2
ACAD_ISO11W100
 70
    64
  3
ISO double-dash dot __ __ . __ __ . __ __ . __ 
 72
    65
 73
     6
 40
33.0
 49
12.0
 74
     0
 49
-3.0
 74
     0
 49
12.0
 74
     0
 49
-3.0
 74
     0
 49
0.0
 74
     0
 49
-3.0
 74
     0
  0
LTYPE
  5
2E
100
AcDbSymbolTableRecord
100
AcDbLinetypeTableRecord
  2
ACAD_ISO12W100
 70
    64
  3
ISO dash double-dot __ . . __ . . __ . . __ . .
 72
    65
 73
     6
 40
21.0
 49
12.0
 74
     0
 49
-3.0
 74
     0
 49
0.0
 74
     0
 49
-3.0
 74
     0
 49
0.0
 74
     0
 49
-3.0
 74
     0
  0
LTYPE
  5
2F
100
AcDbSymbolTableRecord
100
AcDbLinetypeTableRecord
  2
ACAD_ISO13W100
 70
    64
  3
ISO double-dash double-dot __ __ . . __ __ . . 
 72
    65
 73
     8
 40
36.0
 49
12.0
 74
     0
 49
-3.0
 74
     0
 49
12.0
 74
     0
 49
-3.0
 74
     0
 49
0.0
 74
     0
 49
-3.0
 74
     0
 49
0.0
 74
     0
 49
-3.0
 74
     0
  0
LTYPE
  5
30
100
AcDbSymbolTableRecord
100
AcDbLinetypeTableRecord
  2
ACAD_ISO14W100
 70
    64
  3
ISO dash triple-dot __ . . . __ . . . __ . . . 
 72
    65
 73
     8
 40
24.0
 49
12.0
 74
     0
 49
-3.0
 74
     0
 49
0.0
 74
     0
 49
-3.0
 74
     0
 49
0.0
 74
     0
 49
-3.0
 74
     0
 49
0.0
 74
     0
 49
-3.0
 74
     0
  0
LTYPE
  5
31
100
AcDbSymbolTableRecord
100
AcDbLinetypeTableRecord
  2
ACAD_ISO15W100
 70
    64
  3
ISO double-dash double-dot __ __ . . __ __ . . 
 72
    65
 73
    10
 40
39.0
 49
12.0
 74
     0
 49
-3.0
 74
     0
 49
12.0
 74
     0
 49
-3.0
 74
     0
 49
0.0
 74
     0
 49
-3.0
 74
     0
 49
0.0
 74
     0
 49
-3.0
 74
     0
 49
0.0
 74
     0
 49
-3.0
 74
     0
  0
ENDTAB
  0
TABLE
  2
LAYER
  5
2
100
AcDbSymbolTable
 70
     1
  0
LAYER
  5
14
100
AcDbSymbolTableRecord
100
AcDbLayerTableRecord
  2
0
 70
     0
 62
     7
  6
Continuous
  0
ENDTAB
  0
TABLE
  2
STYLE
  5
3
100
AcDbSymbolTable
 70
     4
  0
STYLE
  5
17
100
AcDbSymbolTableRecord
100
AcDbTextStyleTableRecord
  2
Standard
 70
     0
 40
0.0
 41
1.0
 50
0.0
 71
     0
 42
0.0
  3
txt.shx
  4
bigfont.shx
  0
STYLE
  5
32
100
AcDbSymbolTableRecord
100
AcDbTextStyleTableRecord
  2
STANDARD_T
 70
     4
 40
0.0
 41
1.0
 50
0.0
 71
     0
 42
0.0
  3
txt.shx
  4
bigfont.shx
  0
STYLE
  5
33
100
AcDbSymbolTableRecord
100
AcDbTextStyleTableRecord
  2
FontTableH_0
 70
     0
 40
0.0
 41
1.0
 50
0.0
 71
     0
 42
0.0
  3
MS Gothic.ttf
  4

1001
ACAD
1000
MS Gothic
1071
    32817
  0
STYLE
  5
34
100
AcDbSymbolTableRecord
100
AcDbTextStyleTableRecord
  2
FontTableV_0
 70
     0
 40
0.0
 41
1.0
 50
0.0
 71
     0
 42
0.0
  3
@MS Gothic.ttf
  4

1001
ACAD
1000
@MS Gothic
1071
    32817
  0
ENDTAB
  0
TABLE
  2
VIEW
  5
5
100
AcDbSymbolTable
 70
     0
  0
ENDTAB
  0
TABLE
  2
UCS
  5
6
100
AcDbSymbolTable
 70
     0
  0
ENDTAB
  0
TABLE
  2
APPID
  5
8
100
AcDbSymbolTable
 70
     1
  0
APPID
  5
16
100
AcDbSymbolTableRecord
100
AcDbRegAppTableRecord
  2
ACAD
 70
     0
  0
ENDTAB
  0
TABLE
  2
DIMSTYLE
  5
9
100
AcDbSymbolTable
 70
     1
  0
DIMSTYLE
105
18
100
AcDbSymbolTableRecord
100
AcDbDimStyleTableRecord
  2
Standard
 70
     0
  3

  4

  5

  6

  7

 40
1.0
 41
0.18
 42
0.0625
 43
0.38
 44
0.18
 45
0.0
 46
0.0
 47
0.0
 48
0.0
 71
     0
 72
     0
 73
     1
 74
     1
 75
     0
 76
     0
 77
     0
 78
     0
140
0.18
141
0.09
142
0.0
143
25.4
144
1.0
145
0.0
146
1.0
147
0.09
170
     0
171
     2
172
     0
173
     0
174
     0
175
     0
176
     0
177
     0
178
     0
270
     2
271
     4
272
     4
273
     2
274
     2
275
     0
280
     0
281
     0
282
     0
283
     1
284
     0
285
     0
286
     0
287
     0
288
     0
340
17
  0
ENDTAB
  0
TABLE
  2
BLOCK_RECORD
  5
1
100
AcDbSymbolTable
 70
     0
  0
BLOCK_RECORD
  5
A
100
AcDbSymbolTableRecord
100
AcDbBlockTableRecord
  2
*MODEL_SPACE
  0
BLOCK_RECORD
  5
B
100
AcDbSymbolTableRecord
100
AcDbBlockTableRecord
  2
*PAPER_SPACE
  0
ENDTAB
  0
ENDSEC
  0
SECTION
  2
BLOCKS
  0
BLOCK
  5
D
100
AcDbEntity
  8
0
100
AcDbBlockBegin
  2
*MODEL_SPACE
 70
     0
 10
0.0
 20
0.0
 30
0.0
  3
*MODEL_SPACE
  1

  0
ENDBLK
  5
E
100
AcDbEntity
  8
0
100
AcDbBlockEnd
  0
BLOCK
  5
F
100
AcDbEntity
 67
     1
  8
0
100
AcDbBlockBegin
  2
*PAPER_SPACE
 70
     0
 10
0.0
 20
0.0
 30
0.0
  3
*PAPER_SPACE
  1

  0
ENDBLK
  5
10
100
AcDbEntity
 67
     1
  8
0
100
AcDbBlockEnd
  0
ENDSEC
  0
SECTION
  2
ENTITIES
  0
LINE
  5
35
100
AcDbEntity
  8
0
  6
Continuous
 62
     4
100
AcDbLine
 10
331.534678
 20
68.9507
 30
0.0
 11
331.534678
 21
48.910652
 31
0.0
  0
LINE
  5
36
100
AcDbEntity
  8
0
  6
Continuous
 62
     2
100
AcDbLine
 10
374.477638
 20
238.607877
 30
0.0
 11
374.477638
 21
48.910652
 31
0.0
  0
LINE
  5
37
100
AcDbEntity
  8
0
  6
Continuous
 62
     2
100
AcDbLine
 10
97.811323
 20
238.607877
 30
0.0
 11
97.811323
 21
48.910652
 31
0.0
  0
LINE
  5
38
100
AcDbEntity
  8
0
  6
Continuous
 62
     2
100
AcDbLine
 10
374.477638
 20
238.607877
 30
0.0
 11
97.811323
 21
238.607877
 31
0.0
  0
LINE
  5
39
100
AcDbEntity
  8
0
  6
Continuous
 62
     4
100
AcDbLine
 10
331.534678
 20
53.920664
 30
0.0
 11
374.477638
 21
53.920664
 31
0.0
  0
LINE
  5
3A
100
AcDbEntity
  8
0
  6
Continuous
 62
     2
100
AcDbLine
 10
374.477638
 20
48.910652
 30
0.0
 11
97.811323
 21
48.910652
 31
0.0
  0
LINE
  5
3B
100
AcDbEntity
  8
0
  6
Continuous
 62
     4
100
AcDbLine
 10
199.152228
 20
235.115927
 30
0.0
 11
101.152233
 21
235.115927
 31
0.0
  0
LINE
  5
3C
100
AcDbEntity
  8
0
  6
Continuous
 62
     4
100
AcDbLine
 10
199.152228
 20
230.915927
 30
0.0
 11
101.152233
 21
230.915927
 31
0.0
  0
LINE
  5
3D
100
AcDbEntity
  8
0
  6
Continuous
 62
     4
100
AcDbLine
 10
199.152228
 20
226.715927
 30
0.0
 11
101.152233
 21
226.715927
 31
0.0
  0
LINE
  5
3E
100
AcDbEntity
  8
0
  6
Continuous
 62
     4
100
AcDbLine
 10
199.152228
 20
222.515927
 30
0.0
 11
101.152233
 21
222.515927
 31
0.0
  0
LINE
  5
3F
100
AcDbEntity
  8
0
  6
Continuous
 62
     4
100
AcDbLine
 10
199.152228
 20
218.315927
 30
0.0
 11
101.152233
 21
218.315927
 31
0.0
  0
LINE
  5
40
100
AcDbEntity
  8
0
  6
Continuous
 62
     4
100
AcDbLine
 10
199.152228
 20
214.115927
 30
0.0
 11
101.152233
 21
214.115927
 31
0.0
  0
LINE
  5
41
100
AcDbEntity
  8
0
  6
Continuous
 62
     4
100
AcDbLine
 10
199.152228
 20
209.915927
 30
0.0
 11
101.152233
 21
209.915927
 31
0.0
  0
LINE
  5
42
100
AcDbEntity
  8
0
  6
Continuous
 62
     4
100
AcDbLine
 10
199.152228
 20
205.715927
 30
0.0
 11
101.152233
 21
205.715927
 31
0.0
  0
LINE
  5
43
100
AcDbEntity
  8
0
  6
Continuous
 62
     4
100
AcDbLine
 10
199.152228
 20
201.515927
 30
0.0
 11
101.152233
 21
201.515927
 31
0.0
  0
LINE
  5
44
100
AcDbEntity
  8
0
  6
Continuous
 62
     4
100
AcDbLine
 10
199.152228
 20
197.315927
 30
0.0
 11
101.152233
 21
197.315927
 31
0.0
  0
LINE
  5
45
100
AcDbEntity
  8
0
  6
Continuous
 62
     4
100
AcDbLine
 10
199.152228
 20
193.115927
 30
0.0
 11
101.152233
 21
193.115927
 31
0.0
  0
LINE
  5
46
100
AcDbEntity
  8
0
  6
Continuous
 62
     4
100
AcDbLine
 10
199.152228
 20
235.115927
 30
0.0
 11
199.152228
 21
193.115927
 31
0.0
  0
LINE
  5
47
100
AcDbEntity
  8
0
  6
Continuous
 62
     4
100
AcDbLine
 10
179.152233
 20
235.115927
 30
0.0
 11
179.152233
 21
193.115927
 31
0.0
  0
LINE
  5
48
100
AcDbEntity
  8
0
  6
Continuous
 62
     4
100
AcDbLine
 10
166.152233
 20
235.115927
 30
0.0
 11
166.152233
 21
193.115927
 31
0.0
  0
LINE
  5
49
100
AcDbEntity
  8
0
  6
Continuous
 62
     4
100
AcDbLine
 10
153.152233
 20
235.115927
 30
0.0
 11
153.152233
 21
193.115927
 31
0.0
  0
LINE
  5
4A
100
AcDbEntity
  8
0
  6
Continuous
 62
     4
100
AcDbLine
 10
140.152233
 20
235.115927
 30
0.0
 11
140.152233
 21
193.115927
 31
0.0
  0
LINE
  5
4B
100
AcDbEntity
  8
0
  6
Continuous
 62
     4
100
AcDbLine
 10
127.152233
 20
235.115927
 30
0.0
 11
127.152233
 21
193.115927
 31
0.0
  0
LINE
  5
4C
100
AcDbEntity
  8
0
  6
Continuous
 62
     4
100
AcDbLine
 10
114.152233
 20
235.115927
 30
0.0
 11
114.152233
 21
193.115927
 31
0.0
  0
LINE
  5
4D
100
AcDbEntity
  8
0
  6
Continuous
 62
     4
100
AcDbLine
 10
101.152233
 20
235.115927
 30
0.0
 11
101.152233
 21
193.115927
 31
0.0
  0
LINE
  5
4E
100
AcDbEntity
  8
0
  6
Continuous
 62
     2
100
AcDbLine
 10
331.569358
 20
68.9507
 30
0.0
 11
374.477638
 21
68.9507
 31
0.0
  0
LINE
  5
4F
100
AcDbEntity
  8
0
  6
Continuous
 62
     4
100
AcDbLine
 10
331.569358
 20
58.930676
 30
0.0
 11
374.477638
 21
58.930676
 31
0.0
  0
LINE
  5
50
100
AcDbEntity
  8
0
  6
Continuous
 62
     2
100
AcDbLine
 10
203.090178
 20
137.372959
 30
0.0
 11
202.590178
 21
137.372959
 31
0.0
  0
LINE
  5
51
100
AcDbEntity
  8
0
  6
Continuous
 62
     2
100
AcDbLine
 10
201.715178
 20
121.172766
 30
0.0
 11
201.715178
 21
126.172766
 31
0.0
  0
LINE
  5
52
100
AcDbEntity
  8
0
  6
Continuous
 62
     2
100
AcDbLine
 10
205.590178
 20
131.051892
 30
0.0
 11
204.817848
 21
131.051892
 31
0.0
  0
LINE
  5
53
100
AcDbEntity
  8
0
  6
Continuous
 62
     2
100
AcDbLine
 10
205.590178
 20
129.551892
 30
0.0
 11
204.817848
 21
129.551892
 31
0.0
  0
LINE
  5
54
100
AcDbEntity
  8
0
  6
Continuous
 62
     2
100
AcDbLine
 10
206.090178
 20
130.051892
 30
0.0
 11
206.090178
 21
130.551892
 31
0.0
  0
LINE
  5
55
100
AcDbEntity
  8
0
  6
Continuous
 62
     2
100
AcDbLine
 10
205.840178
 20
124.672766
 30
0.0
 11
206.464318
 21
125.541013
 31
0.0
  0
LINE
  5
56
100
AcDbEntity
  8
0
  6
Continuous
 62
     2
100
AcDbLine
 10
205.840178
 20
122.672766
 30
0.0
 11
206.464318
 21
121.804518
 31
0.0
  0
LINE
  5
57
100
AcDbEntity
  8
0
  6
Continuous
 62
     2
100
AcDbLine
 10
205.840178
 20
122.672766
 30
0.0
 11
205.840178
 21
124.672766
 31
0.0
  0
LINE
  5
58
100
AcDbEntity
  8
0
  6
Continuous
 62
     2
100
AcDbLine
 10
204.660438
 20
126.759388
 30
0.0
 11
204.714238
 21
126.834227
 31
0.0
  0
LINE
  5
59
100
AcDbEntity
  8
0
  6
Continuous
 62
     2
100
AcDbLine
 10
204.407578
 20
124.816025
 30
0.0
 11
205.840178
 21
124.672766
 31
0.0
  0
LINE
  5
5A
100
AcDbEntity
  8
0
  6
Continuous
 62
     2
100
AcDbLine
 10
203.955508
 20
122.484298
 30
0.0
 11
205.840178
 21
122.672766
 31
0.0
  0
LINE
  5
5B
100
AcDbEntity
  8
0
  6
Continuous
 62
     2
100
AcDbLine
 10
204.714238
 20
120.511304
 30
0.0
 11
203.790838
 21
121.795851
 31
0.0
  0
LINE
  5
5C
100
AcDbEntity
  8
0
  6
Continuous
 62
     2
100
AcDbLine
 10
203.340178
 20
122.422766
 30
0.0
 11
203.955508
 21
122.484298
 31
0.0
  0
LINE
  5
5D
100
AcDbEntity
  8
0
  6
Continuous
 62
     2
100
AcDbLine
 10
204.817848
 20
131.051892
 30
0.0
 11
204.590178
 21
131.051892
 31
0.0
  0
LINE
  5
5E
100
AcDbEntity
  8
0
  6
Continuous
 62
     2
100
AcDbLine
 10
204.817848
 20
129.551892
 30
0.0
 11
204.590178
 21
129.551892
 31
0.0
  0
LINE
  5
5F
100
AcDbEntity
  8
0
  6
Continuous
 62
     2
100
AcDbLine
 10
196.465178
 20
126.801892
 30
0.0
 11
196.465178
 21
133.801892
 31
0.0
  0
LINE
  5
60
100
AcDbEntity
  8
0
  6
Continuous
 62
     2
100
AcDbLine
 10
194.465178
 20
126.801892
 30
0.0
 11
194.465178
 21
133.801892
 31
0.0
  0
LINE
  5
61
100
AcDbEntity
  8
0
  6
Continuous
 62
     2
100
AcDbLine
 10
202.590178
 20
114.395946
 30
0.0
 11
202.590178
 21
142.801887
 31
0.0
  0
LINE
  5
62
100
AcDbEntity
  8
0
  6
Continuous
 62
     2
100
AcDbLine
 10
201.715178
 20
117.801892
 30
0.0
 11
201.715178
 21
142.801887
 31
0.0
  0
LINE
  5
63
100
AcDbEntity
  8
0
  6
Continuous
 62
     2
100
AcDbLine
 10
202.590178
 20
142.801887
 30
0.0
 11
201.715178
 21
142.801887
 31
0.0
  0
LINE
  5
64
100
AcDbEntity
  8
0
  6
Continuous
 62
     2
100
AcDbLine
 10
202.590178
 20
117.801892
 30
0.0
 11
201.715178
 21
117.801892
 31
0.0
  0
LINE
  5
65
100
AcDbEntity
  8
0
  6
Continuous
 62
     2
100
AcDbLine
 10
203.090178
 20
114.395946
 30
0.0
 11
203.090178
 21
137.372959
 31
0.0
  0
LINE
  5
66
100
AcDbEntity
  8
0
  6
Continuous
 62
     2
100
AcDbLine
 10
203.090178
 20
114.395946
 30
0.0
 11
202.590178
 21
114.395946
 31
0.0
  0
LINE
  5
67
100
AcDbEntity
  8
0
  6
Continuous
 62
     2
100
AcDbLine
 10
201.715178
 20
124.922766
 30
0.0
 11
200.215178
 21
124.922766
 31
0.0
  0
LINE
  5
68
100
AcDbEntity
  8
0
  6
Continuous
 62
     2
100
AcDbLine
 10
201.715178
 20
124.422766
 30
0.0
 11
200.215178
 21
124.422766
 31
0.0
  0
LINE
  5
69
100
AcDbEntity
  8
0
  6
Continuous
 62
     2
100
AcDbLine
 10
200.215178
 20
122.422766
 30
0.0
 11
200.215178
 21
124.922766
 31
0.0
  0
LINE
  5
6A
100
AcDbEntity
  8
0
  6
Continuous
 62
     2
100
AcDbLine
 10
201.715178
 20
123.672766
 30
0.0
 11
200.215178
 21
123.672766
 31
0.0
  0
LINE
  5
6B
100
AcDbEntity
  8
0
  6
Continuous
 62
     2
100
AcDbLine
 10
201.715178
 20
122.422766
 30
0.0
 11
200.215178
 21
122.422766
 31
0.0
  0
LINE
  5
6C
100
AcDbEntity
  8
0
  6
Continuous
 62
     2
100
AcDbLine
 10
203.340178
 20
124.922766
 30
0.0
 11
204.692408
 21
126.803862
 31
0.0
  0
LINE
  5
6D
100
AcDbEntity
  8
0
  6
Continuous
 62
     2
100
AcDbLine
 10
203.340178
 20
122.422766
 30
0.0
 11
203.340178
 21
124.922766
 31
0.0
  0
LINE
  5
6E
100
AcDbEntity
  8
0
  6
Continuous
 62
     2
100
AcDbLine
 10
203.340178
 20
124.922766
 30
0.0
 11
204.407578
 21
124.816025
 31
0.0
  0
LINE
  5
6F
100
AcDbEntity
  8
0
  6
Continuous
 62
     2
100
AcDbLine
 10
201.715178
 20
124.922766
 30
0.0
 11
203.340178
 21
124.922766
 31
0.0
  0
LINE
  5
70
100
AcDbEntity
  8
0
  6
Continuous
 62
     2
100
AcDbLine
 10
201.715178
 20
122.422766
 30
0.0
 11
203.340178
 21
122.422766
 31
0.0
  0
LINE
  5
71
100
AcDbEntity
  8
0
  6
Continuous
 62
     2
100
AcDbLine
 10
203.790838
 20
121.795851
 30
0.0
 11
203.340178
 21
122.422766
 31
0.0
  0
LINE
  5
72
100
AcDbEntity
  8
0
  6
Continuous
 62
     2
100
AcDbLine
 10
201.715178
 20
122.922766
 30
0.0
 11
200.215178
 21
122.922766
 31
0.0
  0
LINE
  5
73
100
AcDbEntity
  8
0
  6
Continuous
 62
     2
100
AcDbLine
 10
203.090178
 20
128.426892
 30
0.0
 11
204.590178
 21
128.426892
 31
0.0
  0
LINE
  5
74
100
AcDbEntity
  8
0
  6
Continuous
 62
     2
100
AcDbLine
 10
204.590178
 20
128.426892
 30
0.0
 11
204.590178
 21
132.176892
 31
0.0
  0
LINE
  5
75
100
AcDbEntity
  8
0
  6
Continuous
 62
     2
100
AcDbLine
 10
203.090178
 20
132.176892
 30
0.0
 11
204.590178
 21
132.176892
 31
0.0
  0
LINE
  5
76
100
AcDbEntity
  8
0
  6
DASHDOT
 62
     4
100
AcDbLine
 10
189.407698
 20
137.801892
 30
0.0
 11
202.590178
 21
137.801892
 31
0.0
  0
LINE
  5
77
100
AcDbEntity
  8
0
  6
DASHDOT
 62
     4
100
AcDbLine
 10
189.407698
 20
122.801892
 30
0.0
 11
202.590178
 21
122.801892
 31
0.0
  0
LINE
  5
78
100
AcDbEntity
  8
0
  6
Continuous
 62
     2
100
AcDbLine
 10
200.255618
 20
132.801892
 30
0.0
 11
203.090178
 21
132.801892
 31
0.0
  0
LINE
  5
79
100
AcDbEntity
  8
0
  6
Continuous
 62
     2
100
AcDbLine
 10
196.465178
 20
132.801892
 30
0.0
 11
200.255618
 21
132.801892
 31
0.0
  0
LINE
  5
7A
100
AcDbEntity
  8
0
  6
Continuous
 62
     2
100
AcDbLine
 10
200.255618
 20
127.801892
 30
0.0
 11
203.090178
 21
127.801892
 31
0.0
  0
LINE
  5
7B
100
AcDbEntity
  8
0
  6
Continuous
 62
     2
100
AcDbLine
 10
196.465178
 20
127.801892
 30
0.0
 11
200.255618
 21
127.801892
 31
0.0
  0
LINE
  5
7C
100
AcDbEntity
  8
0
  6
DASHDOT
 62
     4
100
AcDbLine
 10
163.340181
 20
168.768457
 30
0.0
 11
163.340181
 21
91.704186
 31
0.0
  0
LINE
  5
7D
100
AcDbEntity
  8
0
  6
DASHDOT
 62
     4
100
AcDbLine
 10
123.995329
 20
130.301892
 30
0.0
 11
207.808608
 21
130.301892
 31
0.0
  0
LINE
  5
7E
100
AcDbEntity
  8
0
  6
Continuous
 62
     2
100
AcDbLine
 10
126.215181
 20
134.426892
 30
0.0
 11
126.215181
 21
126.176892
 31
0.0
  0
LINE
  5
7F
100
AcDbEntity
  8
0
  6
Continuous
 62
     2
100
AcDbLine
 10
126.215181
 20
134.426892
 30
0.0
 11
126.570841
 21
134.426892
 31
0.0
  0
LINE
  5
80
100
AcDbEntity
  8
0
  6
Continuous
 62
     2
100
AcDbLine
 10
126.215181
 20
126.176892
 30
0.0
 11
126.570841
 21
126.176892
 31
0.0
  0
LINE
  5
81
100
AcDbEntity
  8
0
  6
Continuous
 62
     4
100
AcDbLine
 10
126.570841
 20
126.176892
 30
0.0
 11
136.530668
 21
126.176892
 31
0.0
  0
LINE
  5
82
100
AcDbEntity
  8
0
  6
Continuous
 62
     4
100
AcDbLine
 10
126.570841
 20
134.426892
 30
0.0
 11
136.530668
 21
134.426892
 31
0.0
  0
LINE
  5
83
100
AcDbEntity
  8
0
  6
Continuous
 62
     2
100
AcDbLine
 10
190.238418
 20
133.801892
 30
0.0
 11
194.465178
 21
133.801892
 31
0.0
  0
LINE
  5
84
100
AcDbEntity
  8
0
  6
Continuous
 62
     2
100
AcDbLine
 10
190.238418
 20
126.801892
 30
0.0
 11
194.465178
 21
126.801892
 31
0.0
  0
LINE
  5
85
100
AcDbEntity
  8
0
  6
Continuous
 62
     2
100
AcDbLine
 10
163.965181
 20
132.801892
 30
0.0
 11
189.596428
 21
132.801892
 31
0.0
  0
LINE
  5
86
100
AcDbEntity
  8
0
  6
Continuous
 62
     2
100
AcDbLine
 10
163.965181
 20
127.801892
 30
0.0
 11
189.596428
 21
127.801892
 31
0.0
  0
LINE
  5
87
100
AcDbEntity
  8
0
  6
Continuous
 62
     2
100
AcDbLine
 10
137.083932
 20
132.801892
 30
0.0
 11
162.715181
 21
132.801892
 31
0.0
  0
LINE
  5
88
100
AcDbEntity
  8
0
  6
Continuous
 62
     2
100
AcDbLine
 10
137.083932
 20
127.801892
 30
0.0
 11
162.715181
 21
127.801892
 31
0.0
  0
LINE
  5
89
100
AcDbEntity
  8
0
  6
Continuous
 62
     4
100
AcDbLine
 10
191.921978
 20
132.248923
 30
0.0
 11
214.696008
 21
145.397507
 31
0.0
  0
LINE
  5
8A
100
AcDbEntity
  8
0
  6
Continuous
 62
     2
100
AcDbLine
 10
330.443158
 20
137.372959
 30
0.0
 11
325.581798
 21
128.092183
 31
0.0
  0
LINE
  5
8B
100
AcDbEntity
  8
0
  6
Continuous
 62
     2
100
AcDbLine
 10
330.443158
 20
137.372959
 30
0.0
 11
321.162378
 21
132.5116
 31
0.0
  0
LINE
  5
8C
100
AcDbEntity
  8
0
  6
Continuous
 62
     2
100
AcDbLine
 10
330.885098
 20
137.814901
 30
0.0
 11
332.210928
 21
139.140717
 31
0.0
  0
LINE
  5
8D
100
AcDbEntity
  8
0
  6
DASHDOT
 62
     4
100
AcDbLine
 10
315.046218
 20
123.672766
 30
0.0
 11
318.299148
 21
123.672766
 31
0.0
  0
LINE
  5
8E
100
AcDbEntity
  8
0
  6
Continuous
 62
     2
100
AcDbLine
 10
307.466148
 20
115.271915
 30
0.0
 11
321.162378
 21
132.5116
 31
0.0
  0
LINE
  5
8F
100
AcDbEntity
  8
0
  6
Continuous
 62
     2
100
AcDbLine
 10
308.342118
 20
114.395946
 30
0.0
 11
325.581798
 21
128.092183
 31
0.0
  0
LINE
  5
90
100
AcDbEntity
  8
0
  6
Continuous
 62
     2
100
AcDbLine
 10
328.684588
 20
139.503407
 30
0.0
 11
329.622088
 21
141.127207
 31
0.0
  0
LINE
  5
91
100
AcDbEntity
  8
0
  6
Continuous
 62
     2
100
AcDbLine
 10
326.122048
 20
140.564847
 30
0.0
 11
326.607328
 21
142.375957
 31
0.0
  0
LINE
  5
92
100
AcDbEntity
  8
0
  6
Continuous
 62
     2
100
AcDbLine
 10
323.372088
 20
142.801887
 30
0.0
 11
323.372088
 21
140.926887
 31
0.0
  0
LINE
  5
93
100
AcDbEntity
  8
0
  6
Continuous
 62
     2
100
AcDbLine
 10
320.622138
 20
140.564847
 30
0.0
 11
320.136858
 21
142.375957
 31
0.0
  0
LINE
  5
94
100
AcDbEntity
  8
0
  6
Continuous
 62
     2
100
AcDbLine
 10
318.059588
 20
139.503407
 30
0.0
 11
317.122088
 21
141.127207
 31
0.0
  0
LINE
  5
95
100
AcDbEntity
  8
0
  6
Continuous
 62
     2
100
AcDbLine
 10
315.859078
 20
137.814901
 30
0.0
 11
314.533258
 21
139.140717
 31
0.0
  0
LINE
  5
96
100
AcDbEntity
  8
0
  6
Continuous
 62
     2
100
AcDbLine
 10
316.492968
 20
127.422766
 30
0.0
 11
316.992968
 21
127.422766
 31
0.0
  0
LINE
  5
97
100
AcDbEntity
  8
0
  6
Continuous
 62
     2
100
AcDbLine
 10
316.492968
 20
119.922766
 30
0.0
 11
316.992968
 21
119.922766
 31
0.0
  0
LINE
  5
98
100
AcDbEntity
  8
0
  6
DASHDOT
 62
     4
100
AcDbLine
 10
316.742968
 20
128.054845
 30
0.0
 11
316.742968
 21
119.66667
 31
0.0
  0
LINE
  5
99
100
AcDbEntity
  8
0
  6
Continuous
 62
     2
100
AcDbLine
 10
316.492968
 20
119.922766
 30
0.0
 11
316.492968
 21
122.448021
 31
0.0
  0
LINE
  5
9A
100
AcDbEntity
  8
0
  6
Continuous
 62
     2
100
AcDbLine
 10
316.492968
 20
124.89751
 30
0.0
 11
316.492968
 21
127.422766
 31
0.0
  0
LINE
  5
9B
100
AcDbEntity
  8
0
  6
Continuous
 62
     2
100
AcDbLine
 10
316.992968
 20
119.922766
 30
0.0
 11
316.992968
 21
122.448021
 31
0.0
  0
LINE
  5
9C
100
AcDbEntity
  8
0
  6
Continuous
 62
     2
100
AcDbLine
 10
316.992968
 20
124.89751
 30
0.0
 11
316.992968
 21
127.422766
 31
0.0
  0
LINE
  5
9D
100
AcDbEntity
  8
0
  6
Continuous
 62
     2
100
AcDbLine
 10
290.872088
 20
167.301887
 30
0.0
 11
290.872088
 21
93.301892
 31
0.0
  0
LINE
  5
9E
100
AcDbEntity
  8
0
  6
Continuous
 62
     2
100
AcDbLine
 10
292.122088
 20
167.301887
 30
0.0
 11
292.122088
 21
93.301892
 31
0.0
  0
LINE
  5
9F
100
AcDbEntity
  8
0
  6
Continuous
 62
     2
100
AcDbLine
 10
355.872088
 20
167.301887
 30
0.0
 11
355.872088
 21
93.301892
 31
0.0
  0
LINE
  5
A0
100
AcDbEntity
  8
0
  6
Continuous
 62
     2
100
AcDbLine
 10
354.622088
 20
167.301887
 30
0.0
 11
354.622088
 21
93.301892
 31
0.0
  0
LINE
  5
A1
100
AcDbEntity
  8
0
  6
Continuous
 62
     2
100
AcDbLine
 10
290.872088
 20
167.301887
 30
0.0
 11
292.122088
 21
167.301887
 31
0.0
  0
LINE
  5
A2
100
AcDbEntity
  8
0
  6
Continuous
 62
     2
100
AcDbLine
 10
354.622088
 20
167.301887
 30
0.0
 11
355.872088
 21
167.301887
 31
0.0
  0
LINE
  5
A3
100
AcDbEntity
  8
0
  6
Continuous
 62
     2
100
AcDbLine
 10
290.872088
 20
93.301892
 30
0.0
 11
292.122088
 21
93.301892
 31
0.0
  0
LINE
  5
A4
100
AcDbEntity
  8
0
  6
Continuous
 62
     2
100
AcDbLine
 10
354.622088
 20
93.301892
 30
0.0
 11
355.872088
 21
93.301892
 31
0.0
  0
LINE
  5
A5
100
AcDbEntity
  8
0
  6
DASHDOT
 62
     4
100
AcDbLine
 10
323.372088
 20
164.078507
 30
0.0
 11
323.372088
 21
95.982013
 31
0.0
  0
LINE
  5
A6
100
AcDbEntity
  8
0
  6
DASHDOT
 62
     4
100
AcDbLine
 10
284.977038
 20
130.301892
 30
0.0
 11
359.731868
 21
130.301892
 31
0.0
  0
LINE
  5
A7
100
AcDbEntity
  8
0
  6
Continuous
 62
     2
100
AcDbLine
 10
345.372088
 20
158.676887
 30
0.0
 11
345.372088
 21
101.926892
 31
0.0
  0
LINE
  5
A8
100
AcDbEntity
  8
0
  6
Continuous
 62
     2
100
AcDbLine
 10
301.372088
 20
158.676887
 30
0.0
 11
301.372088
 21
101.926892
 31
0.0
  0
LINE
  5
A9
100
AcDbEntity
  8
0
  6
Continuous
 62
     2
100
AcDbLine
 10
292.122088
 20
158.676887
 30
0.0
 11
301.372088
 21
158.676887
 31
0.0
  0
LINE
  5
AA
100
AcDbEntity
  8
0
  6
Continuous
 62
     2
100
AcDbLine
 10
345.372088
 20
158.676887
 30
0.0
 11
354.622088
 21
158.676887
 31
0.0
  0
LINE
  5
AB
100
AcDbEntity
  8
0
  6
Continuous
 62
     2
100
AcDbLine
 10
292.122088
 20
101.926892
 30
0.0
 11
301.372088
 21
101.926892
 31
0.0
  0
LINE
  5
AC
100
AcDbEntity
  8
0
  6
Continuous
 62
     2
100
AcDbLine
 10
345.372088
 20
101.926892
 30
0.0
 11
354.622088
 21
101.926892
 31
0.0
  0
LINE
  5
AD
100
AcDbEntity
  8
0
  6
Continuous
 62
     2
100
AcDbLine
 10
301.372088
 20
156.676887
 30
0.0
 11
345.372088
 21
156.676887
 31
0.0
  0
LINE
  5
AE
100
AcDbEntity
  8
0
  6
Continuous
 62
     2
100
AcDbLine
 10
301.372088
 20
103.926892
 30
0.0
 11
345.372088
 21
103.926892
 31
0.0
  0
LINE
  5
AF
100
AcDbEntity
  8
0
  6
Continuous
 62
     2
100
AcDbLine
 10
301.372088
 20
103.176892
 30
0.0
 11
345.372088
 21
103.176892
 31
0.0
  0
LINE
  5
B0
100
AcDbEntity
  8
0
  6
Continuous
 62
     2
100
AcDbLine
 10
301.372088
 20
157.426887
 30
0.0
 11
345.372088
 21
157.426887
 31
0.0
  0
LINE
  5
B1
100
AcDbEntity
  8
0
  6
Continuous
 62
     4
100
AcDbLine
 10
249.879608
 20
97.301892
 30
0.0
 11
286.129608
 21
97.301892
 31
0.0
  0
LINE
  5
B2
100
AcDbEntity
  8
0
  6
Continuous
 62
     4
100
AcDbLine
 10
249.879608
 20
163.301887
 30
0.0
 11
286.129608
 21
163.301887
 31
0.0
  0
LINE
  5
B3
100
AcDbEntity
  8
0
  6
Continuous
 62
     4
100
AcDbLine
 10
237.379608
 20
93.301892
 30
0.0
 11
288.372088
 21
93.301892
 31
0.0
  0
LINE
  5
B4
100
AcDbEntity
  8
0
  6
Continuous
 62
     4
100
AcDbLine
 10
237.379608
 20
167.301887
 30
0.0
 11
288.372088
 21
167.301887
 31
0.0
  0
LINE
  5
B5
100
AcDbEntity
  8
0
  6
Continuous
 62
     4
100
AcDbLine
 10
290.872088
 20
75.655427
 30
0.0
 11
290.872088
 21
87.801892
 31
0.0
  0
LINE
  5
B6
100
AcDbEntity
  8
0
  6
Continuous
 62
     4
100
AcDbLine
 10
266.018228
 20
157.301887
 30
0.0
 11
288.629608
 21
157.301887
 31
0.0
  0
LINE
  5
B7
100
AcDbEntity
  8
0
  6
Continuous
 62
     4
100
AcDbLine
 10
266.018228
 20
103.301892
 30
0.0
 11
288.629608
 21
103.301892
 31
0.0
  0
LINE
  5
B8
100
AcDbEntity
  8
0
  6
DASHDOT
 62
     4
100
AcDbLine
 10
350.681758
 20
163.301887
 30
0.0
 11
359.498618
 21
163.301887
 31
0.0
  0
LINE
  5
B9
100
AcDbEntity
  8
0
  6
DASHDOT
 62
     4
100
AcDbLine
 10
350.681758
 20
97.301892
 30
0.0
 11
359.498618
 21
97.301892
 31
0.0
  0
LINE
  5
BA
100
AcDbEntity
  8
0
  6
DASHDOT
 62
     4
100
AcDbLine
 10
288.629608
 20
163.301887
 30
0.0
 11
296.226968
 21
163.301887
 31
0.0
  0
LINE
  5
BB
100
AcDbEntity
  8
0
  6
DASHDOT
 62
     4
100
AcDbLine
 10
288.629608
 20
97.301892
 30
0.0
 11
296.226968
 21
97.301892
 31
0.0
  0
LINE
  5
BC
100
AcDbEntity
  8
0
  6
Continuous
 62
     4
100
AcDbLine
 10
355.872088
 20
87.801892
 30
0.0
 11
355.872088
 21
75.655427
 31
0.0
  0
LINE
  5
BD
100
AcDbEntity
  8
0
  6
Continuous
 62
     4
100
AcDbLine
 10
322.747088
 20
156.551887
 30
0.0
 11
323.997088
 21
156.551887
 31
0.0
  0
LINE
  5
BE
100
AcDbEntity
  8
0
  6
Continuous
 62
     4
100
AcDbLine
 10
323.997088
 20
142.786257
 30
0.0
 11
323.997088
 21
156.551887
 31
0.0
  0
LINE
  5
BF
100
AcDbEntity
  8
0
  6
Continuous
 62
     4
100
AcDbLine
 10
322.747088
 20
142.786257
 30
0.0
 11
322.747088
 21
156.551887
 31
0.0
  0
LINE
  5
C0
100
AcDbEntity
  8
0
  6
Continuous
 62
     4
100
AcDbLine
 10
322.747088
 20
104.051892
 30
0.0
 11
323.997088
 21
104.051892
 31
0.0
  0
LINE
  5
C1
100
AcDbEntity
  8
0
  6
Continuous
 62
     4
100
AcDbLine
 10
323.997088
 20
104.051892
 30
0.0
 11
323.997088
 21
117.817526
 31
0.0
  0
LINE
  5
C2
100
AcDbEntity
  8
0
  6
Continuous
 62
     4
100
AcDbLine
 10
322.747088
 20
104.051892
 30
0.0
 11
322.747088
 21
117.817526
 31
0.0
  0
LINE
  5
C3
100
AcDbEntity
  8
0
  6
Continuous
 62
     4
100
AcDbLine
 10
325.288328
 20
141.723207
 30
0.0
 11
357.771628
 21
150.520767
 31
0.0
  0
LINE
  5
C4
100
AcDbEntity
  8
0
  6
Continuous
 62
     4
100
AcDbLine
 10
311.753618
 20
118.717338
 30
0.0
 11
318.656318
 21
98.009231
 31
0.0
  0
LINE
  5
C5
100
AcDbEntity
  8
0
  6
Continuous
 62
     4
100
AcDbLine
 10
171.774605
 20
149.235227
 30
0.0
 11
198.880158
 21
164.884627
 31
0.0
  0
LINE
  5
C6
100
AcDbEntity
  8
0
  6
Continuous
 62
     4
100
AcDbLine
 10
203.773688
 20
131.698168
 30
0.0
 11
216.040518
 21
138.780427
 31
0.0
  0
LINE
  5
C7
100
AcDbEntity
  8
0
  6
Continuous
 62
     4
100
AcDbLine
 10
205.263048
 20
121.644977
 30
0.0
 11
213.935518
 21
116.637927
 31
0.0
  0
LINE
  5
C8
100
AcDbEntity
  8
0
  6
Continuous
 62
     4
100
AcDbLine
 10
173.992984
 20
127.979697
 30
0.0
 11
206.374258
 21
109.284358
 31
0.0
  0
LINE
  5
C9
100
AcDbEntity
  8
0
  6
Continuous
 62
     4
100
AcDbLine
 10
163.36443
 20
139.702787
 30
0.0
 11
216.056518
 21
161.003847
 31
0.0
  0
LINE
  5
CA
100
AcDbEntity
  8
0
  6
Continuous
 62
     4
100
AcDbLine
 10
129.65164
 20
127.261003
 30
0.0
 11
113.398122
 21
117.87703
 31
0.0
  0
LINE
  5
CB
100
AcDbEntity
  8
0
  6
Continuous
 62
     4
100
AcDbLine
 10
304.340558
 20
160.226557
 30
0.0
 11
314.009398
 21
137.665932
 31
0.0
  0
LINE
  5
CC
100
AcDbEntity
  8
0
  6
Continuous
 62
     2
100
AcDbLine
 10
162.715181
 20
149.051887
 30
0.0
 11
163.965181
 21
149.051887
 31
0.0
  0
LINE
  5
CD
100
AcDbEntity
  8
0
  6
Continuous
 62
     2
100
AcDbLine
 10
162.715181
 20
111.551892
 30
0.0
 11
163.965181
 21
111.551892
 31
0.0
  0
LINE
  5
CE
100
AcDbEntity
  8
0
  6
Continuous
 62
     2
100
AcDbLine
 10
163.965181
 20
149.051887
 30
0.0
 11
163.965181
 21
111.551892
 31
0.0
  0
LINE
  5
CF
100
AcDbEntity
  8
0
  6
Continuous
 62
     2
100
AcDbLine
 10
162.715181
 20
149.051887
 30
0.0
 11
162.715181
 21
111.551892
 31
0.0
  0
LINE
  5
D0
100
AcDbEntity
  8
0
  6
Continuous
 62
     4
100
AcDbLine
 10
322.747088
 20
149.051887
 30
0.0
 11
320.247088
 21
148.033367
 31
0.0
  0
LINE
  5
D1
100
AcDbEntity
  8
0
  6
Continuous
 62
     4
100
AcDbLine
 10
323.997088
 20
149.045987
 30
0.0
 11
326.497088
 21
148.027467
 31
0.0
  0
LINE
  5
D2
100
AcDbEntity
  8
0
  6
Continuous
 62
     4
100
AcDbLine
 10
323.997088
 20
111.557791
 30
0.0
 11
326.497088
 21
112.57631
 31
0.0
  0
LINE
  5
D3
100
AcDbEntity
  8
0
  6
Continuous
 62
     4
100
AcDbLine
 10
322.747088
 20
111.551892
 30
0.0
 11
320.247088
 21
112.57041
 31
0.0
  0
LINE
  5
D4
100
AcDbEntity
  8
0
  6
Continuous
 62
     4
100
AcDbLine
 10
326.497088
 20
112.57631
 30
0.0
 11
326.497088
 21
118.198819
 31
0.0
  0
LINE
  5
D5
100
AcDbEntity
  8
0
  6
Continuous
 62
     4
100
AcDbLine
 10
320.247088
 20
112.57041
 30
0.0
 11
320.247088
 21
118.198819
 31
0.0
  0
LINE
  5
D6
100
AcDbEntity
  8
0
  6
Continuous
 62
     4
100
AcDbLine
 10
320.247088
 20
142.404957
 30
0.0
 11
320.247088
 21
148.033367
 31
0.0
  0
LINE
  5
D7
100
AcDbEntity
  8
0
  6
Continuous
 62
     4
100
AcDbLine
 10
326.497088
 20
142.375957
 30
0.0
 11
326.497088
 21
148.027467
 31
0.0
  0
LINE
  5
D8
100
AcDbEntity
  8
0
  6
Continuous
 62
     4
100
AcDbLine
 10
355.872088
 20
76.905427
 30
0.0
 11
352.179059
 21
76.254246
 31
0.0
  0
LINE
  5
D9
100
AcDbEntity
  8
0
  6
Continuous
 62
     4
100
AcDbLine
 10
355.872088
 20
76.905427
 30
0.0
 11
352.179059
 21
77.556607
 31
0.0
  0
LINE
  5
DA
100
AcDbEntity
  8
0
  6
Continuous
 62
     4
100
AcDbLine
 10
290.872088
 20
76.905427
 30
0.0
 11
294.565118
 21
77.556607
 31
0.0
  0
LINE
  5
DB
100
AcDbEntity
  8
0
  6
Continuous
 62
     4
100
AcDbLine
 10
290.872088
 20
76.905427
 30
0.0
 11
294.565118
 21
76.254246
 31
0.0
  0
LINE
  5
DC
100
AcDbEntity
  8
0
  6
Continuous
 62
     4
100
AcDbLine
 10
290.872088
 20
76.905427
 30
0.0
 11
355.872088
 21
76.905427
 31
0.0
  0
LINE
  5
DD
100
AcDbEntity
  8
0
  6
Continuous
 62
     4
100
AcDbLine
 10
267.268228
 20
103.301892
 30
0.0
 11
266.617048
 21
106.994921
 31
0.0
  0
LINE
  5
DE
100
AcDbEntity
  8
0
  6
Continuous
 62
     4
100
AcDbLine
 10
267.268228
 20
103.301892
 30
0.0
 11
267.919409
 21
106.994921
 31
0.0
  0
LINE
  5
DF
100
AcDbEntity
  8
0
  6
Continuous
 62
     4
100
AcDbLine
 10
267.268228
 20
157.301892
 30
0.0
 11
267.919409
 21
153.608862
 31
0.0
  0
LINE
  5
E0
100
AcDbEntity
  8
0
  6
Continuous
 62
     4
100
AcDbLine
 10
267.268228
 20
157.301892
 30
0.0
 11
266.617048
 21
153.608862
 31
0.0
  0
LINE
  5
E1
100
AcDbEntity
  8
0
  6
Continuous
 62
     4
100
AcDbLine
 10
267.268228
 20
157.301892
 30
0.0
 11
267.268228
 21
103.301892
 31
0.0
  0
LINE
  5
E2
100
AcDbEntity
  8
0
  6
Continuous
 62
     4
100
AcDbLine
 10
238.629608
 20
93.301892
 30
0.0
 11
237.978428
 21
96.994921
 31
0.0
  0
LINE
  5
E3
100
AcDbEntity
  8
0
  6
Continuous
 62
     4
100
AcDbLine
 10
238.629608
 20
93.301892
 30
0.0
 11
239.280789
 21
96.994921
 31
0.0
  0
LINE
  5
E4
100
AcDbEntity
  8
0
  6
Continuous
 62
     4
100
AcDbLine
 10
238.629608
 20
167.301892
 30
0.0
 11
239.280789
 21
163.608862
 31
0.0
  0
LINE
  5
E5
100
AcDbEntity
  8
0
  6
Continuous
 62
     4
100
AcDbLine
 10
238.629608
 20
167.301892
 30
0.0
 11
237.978428
 21
163.608862
 31
0.0
  0
LINE
  5
E6
100
AcDbEntity
  8
0
  6
Continuous
 62
     4
100
AcDbLine
 10
238.629608
 20
167.301892
 30
0.0
 11
238.629608
 21
93.301892
 31
0.0
  0
LINE
  5
E7
100
AcDbEntity
  8
0
  6
Continuous
 62
     4
100
AcDbLine
 10
251.129608
 20
97.301892
 30
0.0
 11
250.478428
 21
100.994921
 31
0.0
  0
LINE
  5
E8
100
AcDbEntity
  8
0
  6
Continuous
 62
     4
100
AcDbLine
 10
251.129608
 20
97.301892
 30
0.0
 11
251.780789
 21
100.994921
 31
0.0
  0
LINE
  5
E9
100
AcDbEntity
  8
0
  6
Continuous
 62
     4
100
AcDbLine
 10
251.129608
 20
163.301892
 30
0.0
 11
251.780789
 21
159.608862
 31
0.0
  0
LINE
  5
EA
100
AcDbEntity
  8
0
  6
Continuous
 62
     4
100
AcDbLine
 10
251.129608
 20
163.301892
 30
0.0
 11
250.478428
 21
159.608862
 31
0.0
  0
LINE
  5
EB
100
AcDbEntity
  8
0
  6
Continuous
 62
     4
100
AcDbLine
 10
251.129608
 20
163.301892
 30
0.0
 11
251.129608
 21
97.301892
 31
0.0
  0
LINE
  5
EC
100
AcDbEntity
  8
0
  6
Continuous
 62
     4
100
AcDbLine
 10
322.690018
 20
153.217617
 30
0.0
 11
319.735595
 21
152.696672
 31
0.0
  0
LINE
  5
ED
100
AcDbEntity
  8
0
  6
Continuous
 62
     4
100
AcDbLine
 10
322.690018
 20
153.217617
 30
0.0
 11
319.735595
 21
153.738561
 31
0.0
  0
LINE
  5
EE
100
AcDbEntity
  8
0
  6
Continuous
 62
     4
100
AcDbLine
 10
322.690018
 20
153.217617
 30
0.0
 11
317.201097
 21
153.217617
 31
0.0
  0
LINE
  5
EF
100
AcDbEntity
  8
0
  6
Continuous
 62
     4
100
AcDbLine
 10
323.940018
 20
153.227677
 30
0.0
 11
326.894442
 21
153.748621
 31
0.0
  0
LINE
  5
F0
100
AcDbEntity
  8
0
  6
Continuous
 62
     4
100
AcDbLine
 10
323.940018
 20
153.227677
 30
0.0
 11
326.894442
 21
152.706732
 31
0.0
  0
LINE
  5
F1
100
AcDbEntity
  8
0
  6
Continuous
 62
     4
100
AcDbLine
 10
323.940018
 20
153.227677
 30
0.0
 11
331.716413
 21
153.227677
 31
0.0
  0
LINE
  5
F2
100
AcDbEntity
  8
0
  6
Continuous
 62
     4
100
AcDbLine
 10
308.544928
 20
157.699917
 30
0.0
 11
313.210777
 21
165.781404
 31
0.0
  0
LINE
  5
F3
100
AcDbEntity
  8
0
  6
Continuous
 62
     4
100
AcDbLine
 10
355.378328
 20
162.759437
 30
0.0
 11
363.295051
 21
167.330159
 31
0.0
  0
LINE
  5
F4
100
AcDbEntity
  8
0
  6
Continuous
 62
     4
100
AcDbLine
 10
214.064708
 20
183.539407
 30
0.0
 11
195.877581
 21
183.539407
 31
0.0
  0
LINE
  5
F5
100
AcDbEntity
  8
0
  6
Continuous
 62
     4
100
AcDbLine
 10
175.144265
 20
162.806092
 30
0.0
 11
195.877581
 21
183.539407
 31
0.0
  0
CIRCLE
  5
F6
100
AcDbEntity
  8
0
  6
Continuous
 62
     2
100
AcDbCircle
 10
163.340181
 20
130.301892
 30
0.0
 40
37.0
  0
CIRCLE
  5
F7
100
AcDbEntity
  8
0
  6
Continuous
 62
     2
100
AcDbCircle
 10
163.340181
 20
130.301892
 30
0.0
 40
27.125
  0
CIRCLE
  5
F8
100
AcDbEntity
  8
0
  6
Continuous
 62
     4
100
AcDbCircle
 10
163.340181
 20
130.301892
 30
0.0
 40
33.0
  0
CIRCLE
  5
F9
100
AcDbEntity
  8
0
  6
Continuous
 62
     2
100
AcDbCircle
 10
154.799153
 20
162.177437
 30
0.0
 40
1.25
  0
CIRCLE
  5
FA
100
AcDbEntity
  8
0
  6
Continuous
 62
     2
100
AcDbCircle
 10
140.005657
 20
153.636407
 30
0.0
 40
1.25
  0
CIRCLE
  5
FB
100
AcDbEntity
  8
0
  6
Continuous
 62
     2
100
AcDbCircle
 10
131.464629
 20
138.842917
 30
0.0
 40
1.25
  0
CIRCLE
  5
FC
100
AcDbEntity
  8
0
  6
Continuous
 62
     2
100
AcDbCircle
 10
131.464629
 20
121.760863
 30
0.0
 40
1.25
  0
CIRCLE
  5
FD
100
AcDbEntity
  8
0
  6
Continuous
 62
     2
100
AcDbCircle
 10
140.005657
 20
106.967368
 30
0.0
 40
1.25
  0
CIRCLE
  5
FE
100
AcDbEntity
  8
0
  6
Continuous
 62
     2
100
AcDbCircle
 10
154.799153
 20
98.426339
 30
0.0
 40
1.25
  0
CIRCLE
  5
FF
100
AcDbEntity
  8
0
  6
Continuous
 62
     2
100
AcDbCircle
 10
171.88121
 20
98.426339
 30
0.0
 40
1.25
  0
CIRCLE
  5
100
100
AcDbEntity
  8
0
  6
Continuous
 62
     2
100
AcDbCircle
 10
186.674705
 20
106.967368
 30
0.0
 40
1.25
  0
CIRCLE
  5
101
100
AcDbEntity
  8
0
  6
Continuous
 62
     2
100
AcDbCircle
 10
195.215728
 20
121.760863
 30
0.0
 40
1.25
  0
CIRCLE
  5
102
100
AcDbEntity
  8
0
  6
Continuous
 62
     2
100
AcDbCircle
 10
195.215728
 20
138.842917
 30
0.0
 40
1.25
  0
CIRCLE
  5
103
100
AcDbEntity
  8
0
  6
Continuous
 62
     2
100
AcDbCircle
 10
186.674705
 20
153.636407
 30
0.0
 40
1.25
  0
CIRCLE
  5
104
100
AcDbEntity
  8
0
  6
Continuous
 62
     2
100
AcDbCircle
 10
171.88121
 20
162.177437
 30
0.0
 40
1.25
  0
CIRCLE
  5
105
100
AcDbEntity
  8
0
  6
Continuous
 62
     2
100
AcDbCircle
 10
163.340181
 20
130.301892
 30
0.0
 40
26.375
  0
CIRCLE
  5
106
100
AcDbEntity
  8
0
  6
Continuous
 62
     2
100
AcDbCircle
 10
314.492478
 20
136.654182
 30
0.0
 40
1.25
  0
CIRCLE
  5
107
100
AcDbEntity
  8
0
  6
Continuous
 62
     2
100
AcDbCircle
 10
332.209228
 20
136.654182
 30
0.0
 40
1.25
  0
CIRCLE
  5
108
100
AcDbEntity
  8
0
  6
Continuous
 62
     2
100
AcDbCircle
 10
316.742968
 20
123.672766
 30
0.0
 40
1.25
  0
CIRCLE
  5
109
100
AcDbEntity
  8
0
  6
Continuous
 62
     2
100
AcDbCircle
 10
316.742968
 20
123.672766
 30
0.0
 40
1.0
  0
CIRCLE
  5
10A
100
AcDbEntity
  8
0
  6
Continuous
 62
     2
100
AcDbCircle
 10
323.372088
 20
130.301892
 30
0.0
 40
1.25
  0
CIRCLE
  5
10B
100
AcDbEntity
  8
0
  6
Continuous
 62
     2
100
AcDbCircle
 10
323.372088
 20
130.301892
 30
0.0
 40
1.0
  0
CIRCLE
  5
10C
100
AcDbEntity
  8
0
  6
Continuous
 62
     2
100
AcDbCircle
 10
323.372088
 20
130.301892
 30
0.0
 40
2.5
  0
CIRCLE
  5
10D
100
AcDbEntity
  8
0
  6
Continuous
 62
     4
100
AcDbCircle
 10
218.913498
 20
161.528937
 30
0.0
 40
3.125
  0
CIRCLE
  5
10E
100
AcDbEntity
  8
0
  6
Continuous
 62
     4
100
AcDbCircle
 10
366.441068
 20
168.049847
 30
0.0
 40
3.125
  0
CIRCLE
  5
10F
100
AcDbEntity
  8
0
  6
Continuous
 62
     4
100
AcDbCircle
 10
314.788378
 20
168.521587
 30
0.0
 40
3.125
  0
CIRCLE
  5
110
100
AcDbEntity
  8
0
  6
Continuous
 62
     4
100
AcDbCircle
 10
201.130428
 20
165.981397
 30
0.0
 40
3.125
  0
CIRCLE
  5
111
100
AcDbEntity
  8
0
  6
Continuous
 62
     4
100
AcDbCircle
 10
217.051718
 20
147.178217
 30
0.0
 40
3.125
  0
CIRCLE
  5
112
100
AcDbEntity
  8
0
  6
Continuous
 62
     4
100
AcDbCircle
 10
218.870098
 20
140.106747
 30
0.0
 40
3.125
  0
CIRCLE
  5
113
100
AcDbEntity
  8
0
  6
Continuous
 62
     4
100
AcDbCircle
 10
216.903298
 20
115.6592
 30
0.0
 40
3.125
  0
CIRCLE
  5
114
100
AcDbEntity
  8
0
  6
Continuous
 62
     4
100
AcDbCircle
 10
319.337778
 20
95.074509
 30
0.0
 40
3.125
  0
CIRCLE
  5
115
100
AcDbEntity
  8
0
  6
Continuous
 62
     4
100
AcDbCircle
 10
209.084148
 20
107.840051
 30
0.0
 40
3.125
  0
CIRCLE
  5
116
100
AcDbEntity
  8
0
  6
Continuous
 62
     4
100
AcDbCircle
 10
111.211777
 20
115.8139
 30
0.0
 40
3.125
  0
CIRCLE
  5
117
100
AcDbEntity
  8
0
  6
Continuous
 62
     4
100
AcDbCircle
 10
360.669218
 20
151.387047
 30
0.0
 40
3.125
  0
CIRCLE
  5
118
100
AcDbEntity
  8
0
  6
Continuous
 62
     4
100
AcDbCircle
 10
303.972078
 20
163.329757
 30
0.0
 40
3.125
  0
ARC
  5
119
100
AcDbEntity
  8
0
  6
Continuous
 62
     2
100
AcDbCircle
 10
205.590178
 20
130.551892
 30
0.0
 40
0.5
100
AcDbArc
 50
0.0
 51
90.0
  0
ARC
  5
11A
100
AcDbEntity
  8
0
  6
Continuous
 62
     2
100
AcDbCircle
 10
205.590178
 20
130.051892
 30
0.0
 40
0.5
100
AcDbArc
 50
270.0
 51
0.0
  0
ARC
  5
11B
100
AcDbEntity
  8
0
  6
Continuous
 62
     2
100
AcDbCircle
 10
205.625608
 20
126.217512
 30
0.0
 40
1.087875
100
AcDbArc
 50
321.11053
 51
147.90475
  0
ARC
  5
11C
100
AcDbEntity
  8
0
  6
Continuous
 62
     2
100
AcDbCircle
 10
205.625608
 20
121.128019
 30
0.0
 40
1.087875
100
AcDbArc
 50
212.09524
 51
38.889461
  0
ARC
  5
11D
100
AcDbEntity
  8
0
  6
Continuous
 62
     2
100
AcDbCircle
 10
195.465178
 20
132.313167
 30
0.0
 40
1.793405
100
AcDbArc
 50
56.110113
 51
123.88988
  0
ARC
  5
11E
100
AcDbEntity
  8
0
  6
Continuous
 62
     2
100
AcDbCircle
 10
195.465178
 20
128.290616
 30
0.0
 40
1.793405
100
AcDbArc
 50
236.11011
 51
303.88988
  0
ARC
  5
11F
100
AcDbEntity
  8
0
  6
Continuous
 62
     2
100
AcDbCircle
 10
307.845128
 20
114.774923
 30
0.0
 40
0.625
100
AcDbArc
 50
127.32701
 51
322.67298
  0
ARC
  5
120
100
AcDbEntity
  8
0
  6
Continuous
 62
     2
100
AcDbCircle
 10
323.372088
 20
130.301892
 30
0.0
 40
6.875
100
AcDbArc
 50
36.641596
 51
53.358403
  0
ARC
  5
121
100
AcDbEntity
  8
0
  6
Continuous
 62
     2
100
AcDbCircle
 10
323.372088
 20
130.301892
 30
0.0
 40
7.5
100
AcDbArc
 50
38.919552
 51
51.080447
  0
ARC
  5
122
100
AcDbEntity
  8
0
  6
Continuous
 62
     2
100
AcDbCircle
 10
323.372088
 20
130.301892
 30
0.0
 40
6.875
100
AcDbArc
 50
245.31164
 51
36.641596
  0
ARC
  5
123
100
AcDbEntity
  8
0
  6
Continuous
 62
     2
100
AcDbCircle
 10
323.372088
 20
130.301892
 30
0.0
 40
7.5
100
AcDbArc
 50
242.91956
 51
38.919552
  0
ARC
  5
124
100
AcDbEntity
  8
0
  6
Continuous
 62
     2
100
AcDbCircle
 10
323.372088
 20
130.301892
 30
0.0
 40
6.875
100
AcDbArc
 50
53.358403
 51
204.29134
  0
ARC
  5
125
100
AcDbEntity
  8
0
  6
Continuous
 62
     2
100
AcDbCircle
 10
323.372088
 20
130.301892
 30
0.0
 40
7.5
100
AcDbArc
 50
51.080447
 51
202.71081
  0
ARC
  5
126
100
AcDbEntity
  8
0
  6
Continuous
 62
     2
100
AcDbCircle
 10
323.372088
 20
130.301892
 30
0.0
 40
6.875
100
AcDbArc
 50
205.9099
 51
245.31164
  0
ARC
  5
127
100
AcDbEntity
  8
0
  6
Continuous
 62
     2
100
AcDbCircle
 10
323.372088
 20
130.301892
 30
0.0
 40
7.5
100
AcDbArc
 50
203.476
 51
242.91956
  0
ARC
  5
128
100
AcDbEntity
  8
0
  6
Continuous
 62
     2
100
AcDbCircle
 10
323.372088
 20
130.301892
 30
0.0
 40
10.0
100
AcDbArc
 50
236.55328
 51
315.0
  0
ARC
  5
129
100
AcDbEntity
  8
0
  6
Continuous
 62
     2
100
AcDbCircle
 10
323.372088
 20
130.301892
 30
0.0
 40
8.75
100
AcDbArc
 50
239.24831
 51
315.0
  0
ARC
  5
12A
100
AcDbEntity
  8
0
  6
Continuous
 62
     2
100
AcDbCircle
 10
330.001218
 20
123.672766
 30
0.0
 40
0.625
100
AcDbArc
 50
315.0
 51
135.0
  0
ARC
  5
12B
100
AcDbEntity
  8
0
  6
Continuous
 62
     2
100
AcDbCircle
 10
323.372088
 20
130.301892
 30
0.0
 40
12.5
100
AcDbArc
 50
232.84716
 51
217.15283
  0
ARC
  5
12C
100
AcDbEntity
  8
0
  6
Continuous
 62
     2
100
AcDbCircle
 10
323.372088
 20
130.301892
 30
0.0
 40
12.5
100
AcDbArc
 50
217.15283
 51
232.84716
  0
TEXT
  5
12D
100
AcDbEntity
  8
0
 62
     7
100
AcDbText
 10
103.180043
 20
231.307147
 30
0.0
 40
3.0
  1
呼　径
 41
0.7695
  7
FontTableH_0
 72
     5
 11
112.180043
 21
231.307147
 31
0.0
100
AcDbText
  0
TEXT
  5
12E
100
AcDbEntity
  8
0
 62
     7
100
AcDbText
 10
118.8178
 20
231.307147
 30
0.0
 40
3.0
  1
Ａ
 41
0.7695
  7
FontTableH_0
 72
     5
 11
121.8178
 21
231.307147
 31
0.0
100
AcDbText
  0
TEXT
  5
12F
100
AcDbEntity
  8
0
 62
     7
100
AcDbText
 10
142.009711
 20
231.273787
 30
0.0
 40
3.0
  1
ＰＣＤ
 41
0.7695
  7
FontTableH_0
 72
     5
 11
151.009711
 21
231.273787
 31
0.0
100
AcDbText
  0
TEXT
  5
130
100
AcDbEntity
  8
0
 62
     7
100
AcDbText
 10
158.313792
 20
231.066807
 30
0.0
 40
3.0
  1
Ｌ
 41
0.7695
  7
FontTableH_0
 72
     5
 11
161.313792
 21
231.066807
 31
0.0
100
AcDbText
  0
TEXT
  5
131
100
AcDbEntity
  8
0
 62
     7
100
AcDbText
 10
171.442091
 20
222.922887
 30
0.0
 40
3.0
  1
５
 41
0.7695
  7
FontTableH_0
 72
     5
 11
174.442091
 21
222.922887
 31
0.0
100
AcDbText
  0
TEXT
  5
132
100
AcDbEntity
  8
0
 62
     7
100
AcDbText
 10
171.442091
 20
218.722887
 30
0.0
 40
3.0
  1
５
 41
0.7695
  7
FontTableH_0
 72
     5
 11
174.442091
 21
218.722887
 31
0.0
100
AcDbText
  0
TEXT
  5
133
100
AcDbEntity
  8
0
 62
     7
100
AcDbText
 10
171.442091
 20
214.522887
 30
0.0
 40
3.0
  1
５
 41
0.7695
  7
FontTableH_0
 72
     5
 11
174.442091
 21
214.522887
 31
0.0
100
AcDbText
  0
TEXT
  5
134
100
AcDbEntity
  8
0
 62
     7
100
AcDbText
 10
171.442091
 20
210.322887
 30
0.0
 40
3.0
  1
５
 41
0.7695
  7
FontTableH_0
 72
     5
 11
174.442091
 21
210.322887
 31
0.0
100
AcDbText
  0
TEXT
  5
135
100
AcDbEntity
  8
0
 62
     7
100
AcDbText
 10
171.442091
 20
206.122887
 30
0.0
 40
3.0
  1
５
 41
0.7695
  7
FontTableH_0
 72
     5
 11
174.442091
 21
206.122887
 31
0.0
100
AcDbText
  0
TEXT
  5
136
100
AcDbEntity
  8
0
 62
     7
100
AcDbText
 10
171.442091
 20
201.922887
 30
0.0
 40
3.0
  1
５
 41
0.7695
  7
FontTableH_0
 72
     5
 11
174.442091
 21
201.922887
 31
0.0
100
AcDbText
  0
TEXT
  5
137
100
AcDbEntity
  8
0
 62
     7
100
AcDbText
 10
184.264354
 20
231.254117
 30
0.0
 40
3.0
  1
n x φh
 41
0.7695
  7
FontTableH_0
 72
     5
 11
199.139354
 21
231.254117
 31
0.0
100
AcDbText
  0
TEXT
  5
138
100
AcDbEntity
  8
0
 62
     7
100
AcDbText
 10
171.442091
 20
231.243857
 30
0.0
 40
3.0
  1
ｔ
 41
0.7695
  7
FontTableH_0
 72
     5
 11
174.442091
 21
231.243857
 31
0.0
100
AcDbText
  0
TEXT
  5
139
100
AcDbEntity
  8
0
 62
     7
100
AcDbText
 10
171.442091
 20
227.122887
 30
0.0
 40
3.0
  1
５
 41
0.7695
  7
FontTableH_0
 72
     5
 11
174.442091
 21
227.122887
 31
0.0
100
AcDbText
  0
TEXT
  5
13A
100
AcDbEntity
  8
0
 62
     7
100
AcDbText
 10
183.140453
 20
227.133147
 30
0.0
 40
3.0
  1
８ x １０
 41
0.7695
  7
FontTableH_0
 72
     5
 11
200.015453
 21
227.133147
 31
0.0
100
AcDbText
  0
TEXT
  5
13B
100
AcDbEntity
  8
0
 62
     7
100
AcDbText
 10
103.05321
 20
226.998867
 30
0.0
 40
3.0
  1
１５０
 41
0.7695
  7
FontTableH_0
 72
     5
 11
112.05321
 21
226.998867
 31
0.0
100
AcDbText
  0
TEXT
  5
13C
100
AcDbEntity
  8
0
 62
     7
100
AcDbText
 10
116.195366
 20
227.186177
 30
0.0
 40
3.0
  1
１６５
 41
0.7695
  7
FontTableH_0
 72
     5
 11
125.195366
 21
227.186177
 31
0.0
100
AcDbText
  0
TEXT
  5
13D
100
AcDbEntity
  8
0
 62
     7
100
AcDbText
 10
132.284222
 20
231.307147
 30
0.0
 40
3.0
  1
Ｂ
 41
0.7695
  7
FontTableH_0
 72
     5
 11
135.284222
 21
231.307147
 31
0.0
100
AcDbText
  0
TEXT
  5
13E
100
AcDbEntity
  8
0
 62
     7
100
AcDbText
 10
129.287154
 20
227.186177
 30
0.0
 40
3.0
  1
２３０
 41
0.7695
  7
FontTableH_0
 72
     5
 11
138.287154
 21
227.186177
 31
0.0
100
AcDbText
  0
TEXT
  5
13F
100
AcDbEntity
  8
0
 62
     7
100
AcDbText
 10
142.286763
 20
227.113477
 30
0.0
 40
3.0
  1
２０６
 41
0.7695
  7
FontTableH_0
 72
     5
 11
151.286763
 21
227.113477
 31
0.0
100
AcDbText
  0
TEXT
  5
140
100
AcDbEntity
  8
0
 62
     7
100
AcDbText
 10
155.316724
 20
227.133147
 30
0.0
 40
3.0
  1
２２０
 41
0.7695
  7
FontTableH_0
 72
     5
 11
164.316724
 21
227.133147
 31
0.0
100
AcDbText
  0
TEXT
  5
141
100
AcDbEntity
  8
0
 62
     7
100
AcDbText
 10
103.05321
 20
222.798867
 30
0.0
 40
3.0
  1
２００
 41
0.7695
  7
FontTableH_0
 72
     5
 11
112.05321
 21
222.798867
 31
0.0
100
AcDbText
  0
TEXT
  5
142
100
AcDbEntity
  8
0
 62
     7
100
AcDbText
 10
116.195366
 20
222.986177
 30
0.0
 40
3.0
  1
２１６
 41
0.7695
  7
FontTableH_0
 72
     5
 11
125.195366
 21
222.986177
 31
0.0
100
AcDbText
  0
TEXT
  5
143
100
AcDbEntity
  8
0
 62
     7
100
AcDbText
 10
129.287154
 20
222.986177
 30
0.0
 40
3.0
  1
２９６
 41
0.7695
  7
FontTableH_0
 72
     5
 11
138.287154
 21
222.986177
 31
0.0
100
AcDbText
  0
TEXT
  5
144
100
AcDbEntity
  8
0
 62
     7
100
AcDbText
 10
142.286763
 20
222.913477
 30
0.0
 40
3.0
  1
２６４
 41
0.7695
  7
FontTableH_0
 72
     5
 11
151.286763
 21
222.913477
 31
0.0
100
AcDbText
  0
TEXT
  5
145
100
AcDbEntity
  8
0
 62
     7
100
AcDbText
 10
155.316724
 20
222.933147
 30
0.0
 40
3.0
  1
２６０
 41
0.7695
  7
FontTableH_0
 72
     5
 11
164.316724
 21
222.933147
 31
0.0
100
AcDbText
  0
TEXT
  5
146
100
AcDbEntity
  8
0
 62
     7
100
AcDbText
 10
103.05321
 20
218.598867
 30
0.0
 40
3.0
  1
２５０
 41
0.7695
  7
FontTableH_0
 72
     5
 11
112.05321
 21
218.598867
 31
0.0
100
AcDbText
  0
TEXT
  5
147
100
AcDbEntity
  8
0
 62
     7
100
AcDbText
 10
116.195366
 20
218.786177
 30
0.0
 40
3.0
  1
２６７
 41
0.7695
  7
FontTableH_0
 72
     5
 11
125.195366
 21
218.786177
 31
0.0
100
AcDbText
  0
TEXT
  5
148
100
AcDbEntity
  8
0
 62
     7
100
AcDbText
 10
129.287154
 20
218.786177
 30
0.0
 40
3.0
  1
３５８
 41
0.7695
  7
FontTableH_0
 72
     5
 11
138.287154
 21
218.786177
 31
0.0
100
AcDbText
  0
TEXT
  5
149
100
AcDbEntity
  8
0
 62
     7
100
AcDbText
 10
142.286763
 20
218.713477
 30
0.0
 40
3.0
  1
３２２
 41
0.7695
  7
FontTableH_0
 72
     5
 11
151.286763
 21
218.713477
 31
0.0
100
AcDbText
  0
TEXT
  5
14A
100
AcDbEntity
  8
0
 62
     7
100
AcDbText
 10
155.316724
 20
218.733147
 30
0.0
 40
3.0
  1
３１０
 41
0.7695
  7
FontTableH_0
 72
     5
 11
164.316724
 21
218.733147
 31
0.0
100
AcDbText
  0
TEXT
  5
14B
100
AcDbEntity
  8
0
 62
     7
100
AcDbText
 10
103.05321
 20
214.398867
 30
0.0
 40
3.0
  1
３００
 41
0.7695
  7
FontTableH_0
 72
     5
 11
112.05321
 21
214.398867
 31
0.0
100
AcDbText
  0
TEXT
  5
14C
100
AcDbEntity
  8
0
 62
     7
100
AcDbText
 10
116.195366
 20
214.586177
 30
0.0
 40
3.0
  1
３１８
 41
0.7695
  7
FontTableH_0
 72
     5
 11
125.195366
 21
214.586177
 31
0.0
100
AcDbText
  0
TEXT
  5
14D
100
AcDbEntity
  8
0
 62
     7
100
AcDbText
 10
129.287154
 20
214.586177
 30
0.0
 40
3.0
  1
４２１
 41
0.7695
  7
FontTableH_0
 72
     5
 11
138.287154
 21
214.586177
 31
0.0
100
AcDbText
  0
TEXT
  5
14E
100
AcDbEntity
  8
0
 62
     7
100
AcDbText
 10
142.286763
 20
214.513477
 30
0.0
 40
3.0
  1
３８２
 41
0.7695
  7
FontTableH_0
 72
     5
 11
151.286763
 21
214.513477
 31
0.0
100
AcDbText
  0
TEXT
  5
14F
100
AcDbEntity
  8
0
 62
     7
100
AcDbText
 10
155.316724
 20
214.533147
 30
0.0
 40
3.0
  1
３５０
 41
0.7695
  7
FontTableH_0
 72
     5
 11
164.316724
 21
214.533147
 31
0.0
100
AcDbText
  0
TEXT
  5
150
100
AcDbEntity
  8
0
 62
     7
100
AcDbText
 10
103.05321
 20
210.198867
 30
0.0
 40
3.0
  1
３５０
 41
0.7695
  7
FontTableH_0
 72
     5
 11
112.05321
 21
210.198867
 31
0.0
100
AcDbText
  0
TEXT
  5
151
100
AcDbEntity
  8
0
 62
     7
100
AcDbText
 10
116.195366
 20
210.386177
 30
0.0
 40
3.0
  1
３７０
 41
0.7695
  7
FontTableH_0
 72
     5
 11
125.195366
 21
210.386177
 31
0.0
100
AcDbText
  0
TEXT
  5
152
100
AcDbEntity
  8
0
 62
     7
100
AcDbText
 10
129.287154
 20
210.386177
 30
0.0
 40
3.0
  1
４７１
 41
0.7695
  7
FontTableH_0
 72
     5
 11
138.287154
 21
210.386177
 31
0.0
100
AcDbText
  0
TEXT
  5
153
100
AcDbEntity
  8
0
 62
     7
100
AcDbText
 10
142.286763
 20
210.313477
 30
0.0
 40
3.0
  1
４３２
 41
0.7695
  7
FontTableH_0
 72
     5
 11
151.286763
 21
210.313477
 31
0.0
100
AcDbText
  0
TEXT
  5
154
100
AcDbEntity
  8
0
 62
     7
100
AcDbText
 10
103.05321
 20
205.998867
 30
0.0
 40
3.0
  1
４００
 41
0.7695
  7
FontTableH_0
 72
     5
 11
112.05321
 21
205.998867
 31
0.0
100
AcDbText
  0
TEXT
  5
155
100
AcDbEntity
  8
0
 62
     7
100
AcDbText
 10
116.195366
 20
206.186177
 30
0.0
 40
3.0
  1
４２０
 41
0.7695
  7
FontTableH_0
 72
     5
 11
125.195366
 21
206.186177
 31
0.0
100
AcDbText
  0
TEXT
  5
156
100
AcDbEntity
  8
0
 62
     7
100
AcDbText
 10
129.287154
 20
206.186177
 30
0.0
 40
3.0
  1
５２１
 41
0.7695
  7
FontTableH_0
 72
     5
 11
138.287154
 21
206.186177
 31
0.0
100
AcDbText
  0
TEXT
  5
157
100
AcDbEntity
  8
0
 62
     7
100
AcDbText
 10
142.286763
 20
206.113477
 30
0.0
 40
3.0
  1
４８２
 41
0.7695
  7
FontTableH_0
 72
     5
 11
151.286763
 21
206.113477
 31
0.0
100
AcDbText
  0
TEXT
  5
158
100
AcDbEntity
  8
0
 62
     7
100
AcDbText
 10
155.316724
 20
206.133147
 30
0.0
 40
3.0
  1
４２０
 41
0.7695
  7
FontTableH_0
 72
     5
 11
164.316724
 21
206.133147
 31
0.0
100
AcDbText
  0
TEXT
  5
159
100
AcDbEntity
  8
0
 62
     7
100
AcDbText
 10
155.316724
 20
210.333147
 30
0.0
 40
3.0
  1
３７０
 41
0.7695
  7
FontTableH_0
 72
     5
 11
164.316724
 21
210.333147
 31
0.0
100
AcDbText
  0
TEXT
  5
15A
100
AcDbEntity
  8
0
 62
     7
100
AcDbText
 10
103.05321
 20
201.798867
 30
0.0
 40
3.0
  1
４５０
 41
0.7695
  7
FontTableH_0
 72
     5
 11
112.05321
 21
201.798867
 31
0.0
100
AcDbText
  0
TEXT
  5
15B
100
AcDbEntity
  8
0
 62
     7
100
AcDbText
 10
116.195366
 20
201.986177
 30
0.0
 40
3.0
  1
４７０
 41
0.7695
  7
FontTableH_0
 72
     5
 11
125.195366
 21
201.986177
 31
0.0
100
AcDbText
  0
TEXT
  5
15C
100
AcDbEntity
  8
0
 62
     7
100
AcDbText
 10
129.287154
 20
201.986177
 30
0.0
 40
3.0
  1
５９１
 41
0.7695
  7
FontTableH_0
 72
     5
 11
138.287154
 21
201.986177
 31
0.0
100
AcDbText
  0
TEXT
  5
15D
100
AcDbEntity
  8
0
 62
     7
100
AcDbText
 10
142.286763
 20
201.913477
 30
0.0
 40
3.0
  1
５４０
 41
0.7695
  7
FontTableH_0
 72
     5
 11
151.286763
 21
201.913477
 31
0.0
100
AcDbText
  0
TEXT
  5
15E
100
AcDbEntity
  8
0
 62
     7
100
AcDbText
 10
155.316724
 20
201.933147
 30
0.0
 40
3.0
  1
４７０
 41
0.7695
  7
FontTableH_0
 72
     5
 11
164.316724
 21
201.933147
 31
0.0
100
AcDbText
  0
TEXT
  5
15F
100
AcDbEntity
  8
0
 62
     7
100
AcDbText
 10
171.442091
 20
197.722887
 30
0.0
 40
3.0
  1
５
 41
0.7695
  7
FontTableH_0
 72
     5
 11
174.442091
 21
197.722887
 31
0.0
100
AcDbText
  0
TEXT
  5
160
100
AcDbEntity
  8
0
 62
     7
100
AcDbText
 10
171.442091
 20
193.522887
 30
0.0
 40
3.0
  1
５
 41
0.7695
  7
FontTableH_0
 72
     5
 11
174.442091
 21
193.522887
 31
0.0
100
AcDbText
  0
TEXT
  5
161
100
AcDbEntity
  8
0
 62
     7
100
AcDbText
 10
103.05321
 20
197.598867
 30
0.0
 40
3.0
  1
５００
 41
0.7695
  7
FontTableH_0
 72
     5
 11
112.05321
 21
197.598867
 31
0.0
100
AcDbText
  0
TEXT
  5
162
100
AcDbEntity
  8
0
 62
     7
100
AcDbText
 10
116.195366
 20
197.786177
 30
0.0
 40
3.0
  1
５２０
 41
0.7695
  7
FontTableH_0
 72
     5
 11
125.195366
 21
197.786177
 31
0.0
100
AcDbText
  0
TEXT
  5
163
100
AcDbEntity
  8
0
 62
     7
100
AcDbText
 10
129.287154
 20
197.786177
 30
0.0
 40
3.0
  1
６４１
 41
0.7695
  7
FontTableH_0
 72
     5
 11
138.287154
 21
197.786177
 31
0.0
100
AcDbText
  0
TEXT
  5
164
100
AcDbEntity
  8
0
 62
     7
100
AcDbText
 10
142.286763
 20
197.713477
 30
0.0
 40
3.0
  1
５９０
 41
0.7695
  7
FontTableH_0
 72
     5
 11
151.286763
 21
197.713477
 31
0.0
100
AcDbText
  0
TEXT
  5
165
100
AcDbEntity
  8
0
 62
     7
100
AcDbText
 10
155.316724
 20
197.733147
 30
0.0
 40
3.0
  1
５１０
 41
0.7695
  7
FontTableH_0
 72
     5
 11
164.316724
 21
197.733147
 31
0.0
100
AcDbText
  0
TEXT
  5
166
100
AcDbEntity
  8
0
 62
     7
100
AcDbText
 10
103.05321
 20
193.398867
 30
0.0
 40
3.0
  1
６００
 41
0.7695
  7
FontTableH_0
 72
     5
 11
112.05321
 21
193.398867
 31
0.0
100
AcDbText
  0
TEXT
  5
167
100
AcDbEntity
  8
0
 62
     7
100
AcDbText
 10
116.195366
 20
193.586177
 30
0.0
 40
3.0
  1
６１２
 41
0.7695
  7
FontTableH_0
 72
     5
 11
125.195366
 21
193.586177
 31
0.0
100
AcDbText
  0
TEXT
  5
168
100
AcDbEntity
  8
0
 62
     7
100
AcDbText
 10
129.287154
 20
193.586177
 30
0.0
 40
3.0
  1
７１２
 41
0.7695
  7
FontTableH_0
 72
     5
 11
138.287154
 21
193.586177
 31
0.0
100
AcDbText
  0
TEXT
  5
169
100
AcDbEntity
  8
0
 62
     7
100
AcDbText
 10
142.286763
 20
193.513477
 30
0.0
 40
3.0
  1
６７２
 41
0.7695
  7
FontTableH_0
 72
     5
 11
151.286763
 21
193.513477
 31
0.0
100
AcDbText
  0
TEXT
  5
16A
100
AcDbEntity
  8
0
 62
     7
100
AcDbText
 10
155.316724
 20
193.533147
 30
0.0
 40
3.0
  1
５００
 41
0.7695
  7
FontTableH_0
 72
     5
 11
164.316724
 21
193.533147
 31
0.0
100
AcDbText
  0
TEXT
  5
16B
100
AcDbEntity
  8
0
 62
     7
100
AcDbText
 10
179.753714
 20
222.765347
 30
0.0
 40
3.0
  1
１２ x １０
 41
0.7695
  7
FontTableH_0
 72
     5
 11
199.789429
 21
222.765347
 31
0.0
100
AcDbText
  0
TEXT
  5
16C
100
AcDbEntity
  8
0
 62
     7
100
AcDbText
 10
179.62893
 20
218.397877
 30
0.0
 40
3.0
  1
１２ x １０
 41
0.7695
  7
FontTableH_0
 72
     5
 11
199.664645
 21
218.397877
 31
0.0
100
AcDbText
  0
TEXT
  5
16D
100
AcDbEntity
  8
0
 62
     7
100
AcDbText
 10
179.800942
 20
201.850907
 30
0.0
 40
3.0
  1
２４ x １４
 41
0.7695
  7
FontTableH_0
 72
     5
 11
199.836657
 21
201.850907
 31
0.0
100
AcDbText
  0
TEXT
  5
16E
100
AcDbEntity
  8
0
 62
     7
100
AcDbText
 10
179.800942
 20
197.608227
 30
0.0
 40
3.0
  1
２４ x １４
 41
0.7695
  7
FontTableH_0
 72
     5
 11
199.836657
 21
197.608227
 31
0.0
100
AcDbText
  0
TEXT
  5
16F
100
AcDbEntity
  8
0
 62
     7
100
AcDbText
 10
332.765128
 20
61.074638
 30
0.0
 40
4.0
  1
東都積水株式会社
 41
0.7695
  7
FontTableH_0
 72
     5
 11
364.765128
 21
61.074638
 31
0.0
100
AcDbText
  0
TEXT
  5
170
100
AcDbEntity
  8
0
 62
     7
100
AcDbText
 10
179.852613
 20
210.266937
 30
0.0
 40
3.0
  1
１６ x １２
 41
0.7695
  7
FontTableH_0
 72
     5
 11
199.888328
 21
210.266937
 31
0.0
100
AcDbText
  0
TEXT
  5
171
100
AcDbEntity
  8
0
 62
     7
100
AcDbText
 10
179.852613
 20
214.662287
 30
0.0
 40
3.0
  1
１６ x １２
 41
0.7695
  7
FontTableH_0
 72
     5
 11
199.888328
 21
214.662287
 31
0.0
100
AcDbText
  0
TEXT
  5
172
100
AcDbEntity
  8
0
 62
     7
100
AcDbText
 10
179.852613
 20
205.871597
 30
0.0
 40
3.0
  1
２０ x １４
 41
0.7695
  7
FontTableH_0
 72
     5
 11
199.888328
 21
205.871597
 31
0.0
100
AcDbText
  0
TEXT
  5
173
100
AcDbEntity
  8
0
 62
     7
100
AcDbText
 10
313.532808
 20
135.638998
 30
0.0
 40
2.0
  1
Ｏ
 41
0.7695
  7
FontTableH_0
 72
     5
 11
315.532808
 21
135.638998
 31
0.0
100
AcDbText
  0
TEXT
  5
174
100
AcDbEntity
  8
0
 62
     7
100
AcDbText
 10
331.252878
 20
135.718437
 30
0.0
 40
2.0
  1
Ｓ
 41
0.7695
  7
FontTableH_0
 72
     5
 11
333.252878
 21
135.718437
 31
0.0
100
AcDbText
  0
TEXT
  5
175
100
AcDbEntity
  8
0
 62
     7
100
AcDbText
 10
200.246598
 20
164.213717
 30
0.0
 40
4.0
  1
6
 41
0.7695
  7
FontTableH_0
 72
     5
 11
203.246598
 21
164.213717
 31
0.0
100
AcDbText
  0
TEXT
  5
176
100
AcDbEntity
  8
0
 62
     7
100
AcDbText
 10
218.104118
 20
159.286957
 30
0.0
 40
4.0
  1
7
 41
0.7695
  7
FontTableH_0
 72
     5
 11
221.104118
 21
159.286957
 31
0.0
100
AcDbText
  0
TEXT
  5
177
100
AcDbEntity
  8
0
 62
     7
100
AcDbText
 10
313.780158
 20
166.462667
 30
0.0
 40
4.0
  1
1
 41
0.7695
  7
FontTableH_0
 72
     5
 11
316.780158
 21
166.462667
 31
0.0
100
AcDbText
  0
TEXT
  5
178
100
AcDbEntity
  8
0
 62
     7
100
AcDbText
 10
215.926698
 20
145.344787
 30
0.0
 40
4.0
  1
4
 41
0.7695
  7
FontTableH_0
 72
     5
 11
218.926698
 21
145.344787
 31
0.0
100
AcDbText
  0
TEXT
  5
179
100
AcDbEntity
  8
0
 62
     7
100
AcDbText
 10
208.208458
 20
105.904504
 30
0.0
 40
4.0
  1
5
 41
0.7695
  7
FontTableH_0
 72
     5
 11
211.208458
 21
105.904504
 31
0.0
100
AcDbText
  0
TEXT
  5
17A
100
AcDbEntity
  8
0
 62
     7
100
AcDbText
 10
318.467718
 20
92.831844
 30
0.0
 40
4.0
  1
3
 41
0.7695
  7
FontTableH_0
 72
     5
 11
321.467718
 21
92.831844
 31
0.0
100
AcDbText
  0
TEXT
  5
17B
100
AcDbEntity
  8
0
 62
     7
100
AcDbText
 10
109.074864
 20
113.835265
 30
0.0
 40
4.0
  1
10
 41
0.7695
  7
FontTableH_0
 72
     5
 11
115.074864
 21
113.835265
 31
0.0
100
AcDbText
  0
TEXT
  5
17C
100
AcDbEntity
  8
0
 62
     7
100
AcDbText
 10
216.316238
 20
113.3737
 30
0.0
 40
4.0
  1
8
 41
0.7695
  7
FontTableH_0
 72
     5
 11
219.316238
 21
113.3737
 31
0.0
100
AcDbText
  0
TEXT
  5
17D
100
AcDbEntity
  8
0
 62
     7
100
AcDbText
 10
217.852498
 20
138.15402
 30
0.0
 40
4.0
  1
9
 41
0.7695
  7
FontTableH_0
 72
     5
 11
220.852498
 21
138.15402
 31
0.0
100
AcDbText
  0
TEXT
  5
17E
100
AcDbEntity
  8
0
 62
     7
100
AcDbText
 10
365.624748
 20
165.873697
 30
0.0
 40
4.0
  1
2
 41
0.7695
  7
FontTableH_0
 72
     5
 11
368.624748
 21
165.873697
 31
0.0
100
AcDbText
  0
TEXT
  5
17F
100
AcDbEntity
  8
0
 62
     7
100
AcDbText
 10
358.733738
 20
149.241697
 30
0.0
 40
4.0
  1
11
 41
0.7695
  7
FontTableH_0
 72
     5
 11
364.733738
 21
149.241697
 31
0.0
100
AcDbText
  0
TEXT
  5
180
100
AcDbEntity
  8
0
 62
     7
100
AcDbText
 10
301.828158
 20
161.126097
 30
0.0
 40
4.0
  1
12
 41
0.7695
  7
FontTableH_0
 72
     5
 11
307.828158
 21
161.126097
 31
0.0
100
AcDbText
  0
TEXT
  5
181
100
AcDbEntity
  8
0
 62
     7
100
AcDbText
 10
322.434588
 20
78.155427
 30
0.0
 40
4.0
  1
L
 41
0.7695
  7
FontTableH_0
 72
     5
 11
325.434588
 21
78.155427
 31
0.0
100
AcDbText
  0
TEXT
  5
182
100
AcDbEntity
  8
0
 62
     7
100
AcDbText
 10
266.018228
 20
128.426892
 30
0.0
 40
4.0
  1
Ａ
 50
90.0
 41
0.7695
  7
FontTableH_0
 72
     5
 11
266.018228
 21
132.426892
 31
0.0
100
AcDbText
  0
TEXT
  5
183
100
AcDbEntity
  8
0
 62
     7
100
AcDbText
 10
237.379608
 20
128.426892
 30
0.0
 40
4.0
  1
Ｂ
 50
90.0
 41
0.7695
  7
FontTableH_0
 72
     5
 11
237.379608
 21
132.426892
 31
0.0
100
AcDbText
  0
TEXT
  5
184
100
AcDbEntity
  8
0
 62
     7
100
AcDbText
 10
249.879608
 20
124.676892
 30
0.0
 40
4.0
  1
ＰＣＤ
 50
90.0
 41
0.7695
  7
FontTableH_0
 72
     5
 11
249.879608
 21
136.676892
 31
0.0
100
AcDbText
  0
TEXT
  5
185
100
AcDbEntity
  8
0
 62
     7
100
AcDbText
 10
328.924016
 20
153.29893
 30
0.0
 40
4.0
  1
ｔ
 41
0.7695
  7
FontTableH_0
 72
     5
 11
332.924016
 21
153.29893
 31
0.0
100
AcDbText
  0
TEXT
  5
186
100
AcDbEntity
  8
0
 62
     7
100
AcDbText
 10
199.689708
 20
184.789407
 30
0.0
 40
4.0
  1
n x φh
 41
0.7695
  7
FontTableH_0
 72
     5
 11
219.523042
 21
184.789407
 31
0.0
100
AcDbText
  0
TEXT
  5
187
100
AcDbEntity
  8
0
 62
     7
100
AcDbText
 10
332.610348
 20
53.990328
 30
0.0
 40
3.0
  1
ﾎﾞﾘｭｰﾑﾀﾞﾝﾊﾟｰ(ﾚﾊﾞｰ式)
 41
0.7695
  7
FontTableH_0
 72
     5
 11
367.610348
 21
53.990328
 31
0.0
100
AcDbText
  0
TEXT
  5
188
100
AcDbEntity
  8
0
 62
     7
100
AcDbText
 10
179.800942
 20
193.615107
 30
0.0
 40
3.0
  1
２４ x １２
 41
0.7695
  7
FontTableH_0
 72
     5
 11
199.836657
 21
193.615107
 31
0.0
100
AcDbText
  0
ENDSEC
  0
SECTION
  2
OBJECTS
  0
DICTIONARY
  5
19
100
AcDbDictionary
  3
ACAD_GROUP
350
1A
  3
ACAD_MLINESTYLE
350
1B
  3
DWGPROPS
350
189
  0
DICTIONARY
  5
1A
102
{ACAD_REACTORS
330
19
102
}
100
AcDbDictionary
  0
DICTIONARY
  5
1B
102
{ACAD_REACTORS
330
19
102
}
100
AcDbDictionary
  3
STANDARD
350
1C
  0
MLINESTYLE
  5
1C
102
{ACAD_REACTORS
330
1B
102
}
100
AcDbMlineStyle
  2
Standard
 70
     0
  3

 62
     0
 51
90.0
 52
90.0
 71
     2
 49
0.5
 62
   256
  6
ByLayer
 49
-0.5
 62
   256
  6
ByLayer
  0
XRECORD
  5
189
100
AcDbXrecord
  1
DWGPROPS COOKIE
  2

  3

  4

  6

  7

  0
ENDSEC
  0
EOF
