  0
SECTION
  2
HEADER
  9
$ACADVER
  1
AC1014
  9
$ACADMAINTVER
 70
     0
  9
$DWGCODEPAGE
  3
ANSI_932
  9
$INSBASE
 10
0.0
 20
0.0
 30
0.0
  9
$EXTMIN
 10
0.0
 20
0.0
 30
0.0
  9
$EXTMAX
 10
467.293889
 20
293.68018
 30
0.0
  9
$LIMMIN
 10
0.0
 20
0.0
  9
$LIMMAX
 10
467.293889
 20
293.68018
  9
$ORTHOMODE
 70
     0
  9
$REGENMODE
 70
     1
  9
$FILLMODE
 70
     1
  9
$QTEXTMODE
 70
     0
  9
$MIRRTEXT
 70
     1
  9
$DRAGMODE
 70
     2
  9
$LTSCALE
 40
1.0
  9
$OSMODE
 70
     0
  9
$ATTMODE
 70
     1
  9
$TEXTSIZE
 40
0.2
  9
$TRACEWID
 40
0.05
  9
$TEXTSTYLE
  7
Standard
  9
$CLAYER
  8
0
  9
$CELTYPE
  6
Continuous
  9
$CECOLOR
 62
   256
  9
$CELTSCALE
 40
1.0
  9
$DELOBJ
 70
     1
  9
$DISPSILH
 70
     0
  9
$DIMSCALE
 40
1.0
  9
$DIMASZ
 40
0.18
  9
$DIMEXO
 40
0.0625
  9
$DIMDLI
 40
0.38
  9
$DIMRND
 40
0.0
  9
$DIMDLE
 40
0.0
  9
$DIMEXE
 40
0.18
  9
$DIMTP
 40
0.0
  9
$DIMTM
 40
0.0
  9
$DIMTXT
 40
0.18
  9
$DIMCEN
 40
0.09
  9
$DIMTSZ
 40
0.0
  9
$DIMTOL
 70
     0
  9
$DIMLIM
 70
     0
  9
$DIMTIH
 70
     1
  9
$DIMTOH
 70
     1
  9
$DIMSE1
 70
     0
  9
$DIMSE2
 70
     0
  9
$DIMTAD
 70
     0
  9
$DIMZIN
 70
     0
  9
$DIMBLK
  1

  9
$DIMASO
 70
     1
  9
$DIMSHO
 70
     1
  9
$DIMPOST
  1

  9
$DIMAPOST
  1

  9
$DIMALT
 70
     0
  9
$DIMALTD
 70
     2
  9
$DIMALTF
 40
25.4
  9
$DIMLFAC
 40
1.0
  9
$DIMTOFL
 70
     0
  9
$DIMTVP
 40
0.0
  9
$DIMTIX
 70
     0
  9
$DIMSOXD
 70
     0
  9
$DIMSAH
 70
     0
  9
$DIMBLK1
  1

  9
$DIMBLK2
  1

  9
$DIMSTYLE
  2
Standard
  9
$DIMCLRD
 70
     0
  9
$DIMCLRE
 70
     0
  9
$DIMCLRT
 70
     0
  9
$DIMTFAC
 40
1.0
  9
$DIMGAP
 40
0.09
  9
$DIMJUST
 70
     0
  9
$DIMSD1
 70
     0
  9
$DIMSD2
 70
     0
  9
$DIMTOLJ
 70
     1
  9
$DIMTZIN
 70
     0
  9
$DIMALTZ
 70
     0
  9
$DIMALTTZ
 70
     0
  9
$DIMFIT
 70
     3
  9
$DIMUPT
 70
     0
  9
$DIMUNIT
 70
     2
  9
$DIMDEC
 70
     4
  9
$DIMTDEC
 70
     4
  9
$DIMALTU
 70
     2
  9
$DIMALTTD
 70
     2
  9
$DIMTXSTY
  7
Standard
  9
$DIMAUNIT
 70
     0
  9
$LUNITS
 70
     2
  9
$LUPREC
 70
     4
  9
$SKETCHINC
 40
0.1
  9
$FILLETRAD
 40
0.0
  9
$AUNITS
 70
     0
  9
$AUPREC
 70
     0
  9
$MENU
  1
acad
  9
$ELEVATION
 40
0.0
  9
$PELEVATION
 40
0.0
  9
$THICKNESS
 40
0.0
  9
$LIMCHECK
 70
     0
  9
$BLIPMODE
 70
     1
  9
$CHAMFERA
 40
0.0
  9
$CHAMFERB
 40
0.0
  9
$CHAMFERC
 40
0.0
  9
$CHAMFERD
 40
0.0
  9
$SKPOLY
 70
     0
  9
$TDCREATE
 40
0.000000000
  9
$TDUPDATE
 40
0.000000000
  9
$TDINDWG
 40
0.0000000000
  9
$TDUSRTIMER
 40
0.0000000000
  9
$USRTIMER
 70
     1
  9
$ANGBASE
 50
0.0
  9
$ANGDIR
 70
     0
  9
$PDMODE
 70
     0
  9
$PDSIZE
 40
0.0
  9
$PLINEWID
 40
0.0
  9
$COORDS
 70
     0
  9
$SPLFRAME
 70
     0
  9
$SPLINETYPE
 70
     6
  9
$SPLINESEGS
 70
     8
  9
$ATTDIA
 70
     0
  9
$ATTREQ
 70
     1
  9
$HANDLING
 70
     1
  9
$HANDSEED
  5
151
  9
$SURFTAB1
 70
     6
  9
$SURFTAB2
 70
     6
  9
$SURFTYPE
 70
     6
  9
$SURFU
 70
     6
  9
$SURFV
 70
     6
  9
$UCSNAME
  2

  9
$UCSORG
 10
0.0
 20
0.0
 30
0.0
  9
$UCSXDIR
 10
1.0
 20
0.0
 30
0.0
  9
$UCSYDIR
 10
0.0
 20
1.0
 30
0.0
  9
$PUCSNAME
  2

  9
$PUCSORG
 10
0.0
 20
0.0
 30
0.0
  9
$PUCSXDIR
 10
1.0
 20
0.0
 30
0.0
  9
$PUCSYDIR
 10
0.0
 20
1.0
 30
0.0
  9
$USERI1
 70
     0
  9
$USERI2
 70
     0
  9
$USERI3
 70
     0
  9
$USERI4
 70
     0
  9
$USERI5
 70
     0
  9
$USERR1
 40
0.0
  9
$USERR2
 40
0.0
  9
$USERR3
 40
0.0
  9
$USERR4
 40
0.0
  9
$USERR5
 40
0.0
  9
$WORLDVIEW
 70
     1
  9
$SHADEDGE
 70
     3
  9
$SHADEDIF
 70
    70
  9
$TILEMODE
 70
     1
  9
$MAXACTVP
 70
    16
  9
$PINSBASE
 10
0.0
 20
0.0
 30
0.0
  9
$PLIMCHECK
 70
     0
  9
$PEXTMIN
 10
1.000000E+20
 20
1.000000E+20
 30
1.000000E+20
  9
$PEXTMAX
 10
-1.000000E+20
 20
-1.000000E+20
 30
-1.000000E+20
  9
$PLIMMIN
 10
0.0
 20
0.0
  9
$PLIMMAX
 10
12.0
 20
9.0
  9
$UNITMODE
 70
     0
  9
$VISRETAIN
 70
     0
  9
$PLINEGEN
 70
     1
  9
$PSLTSCALE
 70
     0
  9
$TREEDEPTH
 70
  3020
  9
$PICKSTYLE
 70
     1
  9
$CMLSTYLE
  2
Standard
  9
$CMLJUST
 70
     0
  9
$CMLSCALE
 40
1.0
  9
$PROXYGRAPHICS
 70
     0
  9
$MEASUREMENT
 70
     0
  0
ENDSEC
  0
SECTION
  2
CLASSES
  0
CLASS
  1
LWPOLYLINE
  2
AcDbPolyline
  3
"AutoCAD"
 90
        0
280
     0
281
     1
  0
CLASS
  1
IMAGE
  2
AcDbRasterImage
  3
ISM
 90
      127
280
     0
281
     1
  0
CLASS
  1
OLE2FRAME
  2
AcDbOle2Frame
  3
""
 90
        0
280
     0
281
     1
  0
CLASS
  1
HATCH
  2
AcDbHatch
  3
"ACAD_SEDONA"
 90
        0
280
     0
281
     1
  0
CLASS
  1
DICTIONARYVAR
  2
AcDbDictionaryVar
  3
"AutoCAD"
 90
        0
280
     0
281
     0
  0
CLASS
  1
RASTERVARIABLES
  2
AcDbRasterVariables
  3
ISM
 90
        0
280
     0
281
     0
  0
CLASS
  1
IMAGEDEF
  2
AcDbRasterImageDef
  3
ISM
 90
        0
280
     0
281
     0
  0
CLASS
  1
IMAGEDEF_REACTOR
  2
AcDbRasterImageDefReactor
  3
ISM
 90
        1
280
     0
281
     0
  0
CLASS
  1
IDBUFFER
  2
AcDbIdBuffer
  3
"Acad"
 90
        0
280
     0
281
     0
  0
CLASS
  1
SPATIAL_FILTER
  2
AcDbSpatialFilter
  3
"Acad"
 90
        0
280
     0
281
     0
  0
CLASS
  1
XRECORD
  2
AcDbXrecord
  3
"<Built In>"
 90
        0
280
     0
281
     0
  0
CLASS
  1
SORTENTSTABLE
  2
AcDbSortentsTable
  3
"AutoCAD"
 90
        0
280
     0
281
     0
  0
CLASS
  1
LAYER_INDEX
  2
AcDbLayerIndex
  3
"Acad"
 90
        0
280
     0
281
     0
  0
CLASS
  1
SPATIAL_INDEX
  2
AcDbSpatialIndex
  3
"Acad"
 90
        0
280
     0
281
     0
  0
CLASS
  1
OBJECT_PTR
  2
CAseDLPNTableRecord
  3
"ASE-LPNTableRecord"
 90
        1
280
     0
281
     0
  0
CLASS
  1
LAYOUT
  2
AcDbLayout
  3
"AutoCAD 2000"
 90
        0
280
     0
281
     0
  0
CLASS
  1
PLOTSETTINGS
  2
AcDbPlotSettings
  3
"AutoCAD 2000"
 90
        0
280
     0
281
     0
  0
CLASS
  1
ACDBDICTIONARYWDFLT
  2
AcDbDictionaryWithDefault
  3
"AutoCAD 2000"
 90
        0
280
     0
281
     0
  0
CLASS
  1
ACDBPLACEHOLDER
  2
AcDbPlaceHolder
  3
"AutoCAD 2000"
 90
        0
280
     0
281
     0
  0
CLASS
  1
VBA_PROJECT
  2
AcDbVbaProject
  3
"acadvba"
 90
        0
280
     0
281
     0
  0
CLASS
  1
WIPEOUT
  2
AcDbWipeout
  3
WipeOut|AutoCAD Express Tool|expresstools@autodesk.com
 90
      127
280
     0
281
     1
  0
CLASS
  1
WIPEOUTVARIABLES
  2
AcDbWipeoutVariables
  3
WipeOut|AutoCAD Express Tool|expresstools@autodesk.com
 90
        0
280
     0
281
     0
  0
CLASS
  1
RTEXT
  2
RText
  3
RText|AutoCAD Express Tool|expresstools@autodesk.com
 90
        0
280
     0
281
     1
  0
CLASS
  1
ARCALIGNEDTEXT
  2
AcDbArcAlignedText
  3
ATEXT|AutoCAD Express Tool|expresstools@autodesk.com
 90
        0
280
     0
281
     1
  0
ENDSEC
  0
SECTION
  2
TABLES
  0
TABLE
  2
VPORT
  5
7
100
AcDbSymbolTable
 70
     1
  0
VPORT
  5
15
100
AcDbSymbolTableRecord
100
AcDbViewportTableRecord
  2
*ACTIVE
 70
     0
 10
0.0
 20
0.0
 11
1.0
 21
1.0
 12
233.646944
 22
146.84009
 13
0.0
 23
0.0
 14
10.0
 24
10.0
 15
10.0
 25
10.0
 16
0.0
 26
0.0
 36
1.0
 17
0.0
 27
0.0
 37
0.0
 40
293.68018
 41
1.591166
 42
50.0
 43
0.0
 44
0.0
 50
0.0
 51
0.0
 71
     0
 72
   100
 73
     1
 74
     1
 75
     0
 76
     0
 77
     0
 78
     0
  0
ENDTAB
  0
TABLE
  2
LTYPE
  5
4
100
AcDbSymbolTable
 70
    24
  0
LTYPE
  5
11
100
AcDbSymbolTableRecord
100
AcDbLinetypeTableRecord
  2
ByBlock
 70
    64
  3

 72
    65
 73
     0
 40
0.0
  0
LTYPE
  5
12
100
AcDbSymbolTableRecord
100
AcDbLinetypeTableRecord
  2
ByLayer
 70
    64
  3

 72
    65
 73
     0
 40
0.0
  0
LTYPE
  5
13
100
AcDbSymbolTableRecord
100
AcDbLinetypeTableRecord
  2
Continuous
 70
    64
  3
Solid line
 72
    65
 73
     0
 40
0.0
  0
LTYPE
  5
1D
100
AcDbSymbolTableRecord
100
AcDbLinetypeTableRecord
  2
DOT
 70
    64
  3
Dot . . . . . . . . . . . . . . . . . . . . . .
 72
    65
 73
     2
 40
6.35
 49
0.35
 74
     0
 49
-6.0
 74
     0
  0
LTYPE
  5
1E
100
AcDbSymbolTableRecord
100
AcDbLinetypeTableRecord
  2
DASHED
 70
    64
  3
Dashed __ __ __ __ __ __ __ __ __ __ __ __ __ _
 72
    65
 73
     2
 40
12.7
 49
6.35
 74
     0
 49
-6.35
 74
     0
  0
LTYPE
  5
1F
100
AcDbSymbolTableRecord
100
AcDbLinetypeTableRecord
  2
DASHDOT
 70
    64
  3
Dash dot __ . __ . __ . __ . __ . __ . __ . __
 72
    65
 73
     4
 40
25.4
 49
12.7
 74
     0
 49
-6.0
 74
     0
 49
0.7
 74
     0
 49
-6.0
 74
     0
  0
LTYPE
  5
20
100
AcDbSymbolTableRecord
100
AcDbLinetypeTableRecord
  2
DIVIDE
 70
    64
  3
Divide ____ . . ____ . . ____ . . ____ . . ____
 72
    65
 73
     6
 40
31.75
 49
12.7
 74
     0
 49
-6.0
 74
     0
 49
0.875
 74
     0
 49
-6.0
 74
     0
 49
0.875
 74
     0
 49
-6.0
 74
     0
  0
LTYPE
  5
21
100
AcDbSymbolTableRecord
100
AcDbLinetypeTableRecord
  2
HIDDEN
 70
    64
  3
Hidden __ __ __ __ __ __ __ __ __ __ __ __ __ _
 72
    65
 73
     2
 40
9.525
 49
6.35
 74
     0
 49
-3.175
 74
     0
  0
LTYPE
  5
22
100
AcDbSymbolTableRecord
100
AcDbLinetypeTableRecord
  2
CENTER
 70
    64
  3
Center ____ _ ____ _ ____ _ ____ _ ____ _ ____
 72
    65
 73
     4
 40
50.8
 49
31.75
 74
     0
 49
-6.35
 74
     0
 49
6.35
 74
     0
 49
-6.35
 74
     0
  0
LTYPE
  5
23
100
AcDbSymbolTableRecord
100
AcDbLinetypeTableRecord
  2
PHANTOM
 70
    64
  3
Phantom ______  __  __  ______  __  __  ______
 72
    65
 73
     6
 40
63.5
 49
31.75
 74
     0
 49
-6.35
 74
     0
 49
6.35
 74
     0
 49
-6.35
 74
     0
 49
6.35
 74
     0
 49
-6.35
 74
     0
  0
LTYPE
  5
24
100
AcDbSymbolTableRecord
100
AcDbLinetypeTableRecord
  2
ACAD_ISO02W100
 70
    64
  3
ISO dash __ __ __ __ __ __ __ __ __ __ __ __ __
 72
    65
 73
     2
 40
15.0
 49
12.0
 74
     0
 49
-3.0
 74
     0
  0
LTYPE
  5
25
100
AcDbSymbolTableRecord
100
AcDbLinetypeTableRecord
  2
ACAD_ISO03W100
 70
    64
  3
ISO dash space __ __ __ __ __ __ __ __ __ __ __ __ __ __
 72
    65
 73
     2
 40
30.0
 49
12.0
 74
     0
 49
-18.0
 74
     0
  0
LTYPE
  5
26
100
AcDbSymbolTableRecord
100
AcDbLinetypeTableRecord
  2
ACAD_ISO04W100
 70
    64
  3
ISO long-dash dot ____ . ____ . ____ . ____ . _
 72
    65
 73
     4
 40
30.0
 49
24.0
 74
     0
 49
-3.0
 74
     0
 49
0.0
 74
     0
 49
-3.0
 74
     0
  0
LTYPE
  5
27
100
AcDbSymbolTableRecord
100
AcDbLinetypeTableRecord
  2
ACAD_ISO05W100
 70
    64
  3
ISO long-dash double-dot ____ .. ____ .. ____ .
 72
    65
 73
     6
 40
33.0
 49
24.0
 74
     0
 49
-3.0
 74
     0
 49
0.0
 74
     0
 49
-3.0
 74
     0
 49
0.0
 74
     0
 49
-3.0
 74
     0
  0
LTYPE
  5
28
100
AcDbSymbolTableRecord
100
AcDbLinetypeTableRecord
  2
ACAD_ISO06W100
 70
    64
  3
ISO long-dash triple-dot ____ ... ____ ... ____
 72
    65
 73
     8
 40
36.0
 49
24.0
 74
     0
 49
-3.0
 74
     0
 49
0.0
 74
     0
 49
-3.0
 74
     0
 49
0.0
 74
     0
 49
-3.0
 74
     0
 49
0.0
 74
     0
 49
-3.0
 74
     0
  0
LTYPE
  5
29
100
AcDbSymbolTableRecord
100
AcDbLinetypeTableRecord
  2
ACAD_ISO07W100
 70
    64
  3
ISO dot . . . . . . . . . . . . . . . . . . . .
 72
    65
 73
     2
 40
3.0
 49
0.0
 74
     0
 49
-3.0
 74
     0
  0
LTYPE
  5
2A
100
AcDbSymbolTableRecord
100
AcDbLinetypeTableRecord
  2
ACAD_ISO08W100
 70
    64
  3
ISO long-dash short-dash ____ __ ____ __ ____ _
 72
    65
 73
     4
 40
36.0
 49
24.0
 74
     0
 49
-3.0
 74
     0
 49
6.0
 74
     0
 49
-3.0
 74
     0
  0
LTYPE
  5
2B
100
AcDbSymbolTableRecord
100
AcDbLinetypeTableRecord
  2
ACAD_ISO09W100
 70
    64
  3
ISO long-dash double-short-dash ____ __ __ ____
 72
    65
 73
     6
 40
45.0
 49
24.0
 74
     0
 49
-3.0
 74
     0
 49
6.0
 74
     0
 49
-3.0
 74
     0
 49
6.0
 74
     0
 49
-3.0
 74
     0
  0
LTYPE
  5
2C
100
AcDbSymbolTableRecord
100
AcDbLinetypeTableRecord
  2
ACAD_ISO10W100
 70
    64
  3
ISO dash dot __ . __ . __ . __ . __ . __ . __ .
 72
    65
 73
     4
 40
18.0
 49
12.0
 74
     0
 49
-3.0
 74
     0
 49
0.0
 74
     0
 49
-3.0
 74
     0
  0
LTYPE
  5
2D
100
AcDbSymbolTableRecord
100
AcDbLinetypeTableRecord
  2
ACAD_ISO11W100
 70
    64
  3
ISO double-dash dot __ __ . __ __ . __ __ . __ 
 72
    65
 73
     6
 40
33.0
 49
12.0
 74
     0
 49
-3.0
 74
     0
 49
12.0
 74
     0
 49
-3.0
 74
     0
 49
0.0
 74
     0
 49
-3.0
 74
     0
  0
LTYPE
  5
2E
100
AcDbSymbolTableRecord
100
AcDbLinetypeTableRecord
  2
ACAD_ISO12W100
 70
    64
  3
ISO dash double-dot __ . . __ . . __ . . __ . .
 72
    65
 73
     6
 40
21.0
 49
12.0
 74
     0
 49
-3.0
 74
     0
 49
0.0
 74
     0
 49
-3.0
 74
     0
 49
0.0
 74
     0
 49
-3.0
 74
     0
  0
LTYPE
  5
2F
100
AcDbSymbolTableRecord
100
AcDbLinetypeTableRecord
  2
ACAD_ISO13W100
 70
    64
  3
ISO double-dash double-dot __ __ . . __ __ . . 
 72
    65
 73
     8
 40
36.0
 49
12.0
 74
     0
 49
-3.0
 74
     0
 49
12.0
 74
     0
 49
-3.0
 74
     0
 49
0.0
 74
     0
 49
-3.0
 74
     0
 49
0.0
 74
     0
 49
-3.0
 74
     0
  0
LTYPE
  5
30
100
AcDbSymbolTableRecord
100
AcDbLinetypeTableRecord
  2
ACAD_ISO14W100
 70
    64
  3
ISO dash triple-dot __ . . . __ . . . __ . . . 
 72
    65
 73
     8
 40
24.0
 49
12.0
 74
     0
 49
-3.0
 74
     0
 49
0.0
 74
     0
 49
-3.0
 74
     0
 49
0.0
 74
     0
 49
-3.0
 74
     0
 49
0.0
 74
     0
 49
-3.0
 74
     0
  0
LTYPE
  5
31
100
AcDbSymbolTableRecord
100
AcDbLinetypeTableRecord
  2
ACAD_ISO15W100
 70
    64
  3
ISO double-dash double-dot __ __ . . __ __ . . 
 72
    65
 73
    10
 40
39.0
 49
12.0
 74
     0
 49
-3.0
 74
     0
 49
12.0
 74
     0
 49
-3.0
 74
     0
 49
0.0
 74
     0
 49
-3.0
 74
     0
 49
0.0
 74
     0
 49
-3.0
 74
     0
 49
0.0
 74
     0
 49
-3.0
 74
     0
  0
ENDTAB
  0
TABLE
  2
LAYER
  5
2
100
AcDbSymbolTable
 70
     1
  0
LAYER
  5
14
100
AcDbSymbolTableRecord
100
AcDbLayerTableRecord
  2
0
 70
     0
 62
     7
  6
Continuous
  0
ENDTAB
  0
TABLE
  2
STYLE
  5
3
100
AcDbSymbolTable
 70
     4
  0
STYLE
  5
17
100
AcDbSymbolTableRecord
100
AcDbTextStyleTableRecord
  2
Standard
 70
     0
 40
0.0
 41
1.0
 50
0.0
 71
     0
 42
0.0
  3
txt.shx
  4
bigfont.shx
  0
STYLE
  5
32
100
AcDbSymbolTableRecord
100
AcDbTextStyleTableRecord
  2
STANDARD_T
 70
     4
 40
0.0
 41
1.0
 50
0.0
 71
     0
 42
0.0
  3
txt.shx
  4
bigfont.shx
  0
STYLE
  5
33
100
AcDbSymbolTableRecord
100
AcDbTextStyleTableRecord
  2
FontTableH_0
 70
     0
 40
0.0
 41
1.0
 50
0.0
 71
     0
 42
0.0
  3
MS Gothic.ttf
  4

1001
ACAD
1000
MS Gothic
1071
    32817
  0
STYLE
  5
34
100
AcDbSymbolTableRecord
100
AcDbTextStyleTableRecord
  2
FontTableV_0
 70
     0
 40
0.0
 41
1.0
 50
0.0
 71
     0
 42
0.0
  3
@MS Gothic.ttf
  4

1001
ACAD
1000
@MS Gothic
1071
    32817
  0
ENDTAB
  0
TABLE
  2
VIEW
  5
5
100
AcDbSymbolTable
 70
     0
  0
ENDTAB
  0
TABLE
  2
UCS
  5
6
100
AcDbSymbolTable
 70
     0
  0
ENDTAB
  0
TABLE
  2
APPID
  5
8
100
AcDbSymbolTable
 70
     1
  0
APPID
  5
16
100
AcDbSymbolTableRecord
100
AcDbRegAppTableRecord
  2
ACAD
 70
     0
  0
ENDTAB
  0
TABLE
  2
DIMSTYLE
  5
9
100
AcDbSymbolTable
 70
     1
  0
DIMSTYLE
105
18
100
AcDbSymbolTableRecord
100
AcDbDimStyleTableRecord
  2
Standard
 70
     0
  3

  4

  5

  6

  7

 40
1.0
 41
0.18
 42
0.0625
 43
0.38
 44
0.18
 45
0.0
 46
0.0
 47
0.0
 48
0.0
 71
     0
 72
     0
 73
     1
 74
     1
 75
     0
 76
     0
 77
     0
 78
     0
140
0.18
141
0.09
142
0.0
143
25.4
144
1.0
145
0.0
146
1.0
147
0.09
170
     0
171
     2
172
     0
173
     0
174
     0
175
     0
176
     0
177
     0
178
     0
270
     2
271
     4
272
     4
273
     2
274
     2
275
     0
280
     0
281
     0
282
     0
283
     1
284
     0
285
     0
286
     0
287
     0
288
     0
340
17
  0
ENDTAB
  0
TABLE
  2
BLOCK_RECORD
  5
1
100
AcDbSymbolTable
 70
     0
  0
BLOCK_RECORD
  5
A
100
AcDbSymbolTableRecord
100
AcDbBlockTableRecord
  2
*MODEL_SPACE
  0
BLOCK_RECORD
  5
B
100
AcDbSymbolTableRecord
100
AcDbBlockTableRecord
  2
*PAPER_SPACE
  0
ENDTAB
  0
ENDSEC
  0
SECTION
  2
BLOCKS
  0
BLOCK
  5
D
100
AcDbEntity
  8
0
100
AcDbBlockBegin
  2
*MODEL_SPACE
 70
     0
 10
0.0
 20
0.0
 30
0.0
  3
*MODEL_SPACE
  1

  0
ENDBLK
  5
E
100
AcDbEntity
  8
0
100
AcDbBlockEnd
  0
BLOCK
  5
F
100
AcDbEntity
 67
     1
  8
0
100
AcDbBlockBegin
  2
*PAPER_SPACE
 70
     0
 10
0.0
 20
0.0
 30
0.0
  3
*PAPER_SPACE
  1

  0
ENDBLK
  5
10
100
AcDbEntity
 67
     1
  8
0
100
AcDbBlockEnd
  0
ENDSEC
  0
SECTION
  2
ENTITIES
  0
LINE
  5
35
100
AcDbEntity
  8
0
  6
Continuous
 62
     2
100
AcDbLine
 10
96.776841
 20
245.286822
 30
0.0
 11
368.068988
 21
245.286822
 31
0.0
  0
LINE
  5
36
100
AcDbEntity
  8
0
  6
Continuous
 62
     2
100
AcDbLine
 10
96.776841
 20
245.286822
 30
0.0
 11
96.776841
 21
48.393358
 31
0.0
  0
LINE
  5
37
100
AcDbEntity
  8
0
  6
Continuous
 62
     4
100
AcDbLine
 10
322.978878
 20
69.435408
 30
0.0
 11
322.978878
 21
48.393358
 31
0.0
  0
LINE
  5
38
100
AcDbEntity
  8
0
  6
Continuous
 62
     4
100
AcDbLine
 10
322.978878
 20
53.65387
 30
0.0
 11
368.068988
 21
53.65387
 31
0.0
  0
LINE
  5
39
100
AcDbEntity
  8
0
  6
Continuous
 62
     2
100
AcDbLine
 10
96.776841
 20
48.393358
 30
0.0
 11
368.068988
 21
48.393358
 31
0.0
  0
LINE
  5
3A
100
AcDbEntity
  8
0
  6
Continuous
 62
     2
100
AcDbLine
 10
368.068988
 20
245.286822
 30
0.0
 11
368.068988
 21
48.393358
 31
0.0
  0
LINE
  5
3B
100
AcDbEntity
  8
0
  6
Continuous
 62
     4
100
AcDbLine
 10
100.11775
 20
241.794872
 30
0.0
 11
100.11775
 21
208.194872
 31
0.0
  0
LINE
  5
3C
100
AcDbEntity
  8
0
  6
Continuous
 62
     4
100
AcDbLine
 10
113.11775
 20
241.794872
 30
0.0
 11
113.11775
 21
208.194872
 31
0.0
  0
LINE
  5
3D
100
AcDbEntity
  8
0
  6
Continuous
 62
     4
100
AcDbLine
 10
126.11775
 20
241.794872
 30
0.0
 11
126.11775
 21
208.194872
 31
0.0
  0
LINE
  5
3E
100
AcDbEntity
  8
0
  6
Continuous
 62
     4
100
AcDbLine
 10
139.11775
 20
241.794872
 30
0.0
 11
139.11775
 21
208.194872
 31
0.0
  0
LINE
  5
3F
100
AcDbEntity
  8
0
  6
Continuous
 62
     4
100
AcDbLine
 10
152.11775
 20
241.794872
 30
0.0
 11
152.11775
 21
208.194872
 31
0.0
  0
LINE
  5
40
100
AcDbEntity
  8
0
  6
Continuous
 62
     4
100
AcDbLine
 10
165.11775
 20
241.794872
 30
0.0
 11
165.11775
 21
208.194872
 31
0.0
  0
LINE
  5
41
100
AcDbEntity
  8
0
  6
Continuous
 62
     4
100
AcDbLine
 10
178.11775
 20
241.794872
 30
0.0
 11
178.11775
 21
208.194872
 31
0.0
  0
LINE
  5
42
100
AcDbEntity
  8
0
  6
Continuous
 62
     4
100
AcDbLine
 10
198.117748
 20
241.794872
 30
0.0
 11
198.117748
 21
208.194872
 31
0.0
  0
LINE
  5
43
100
AcDbEntity
  8
0
  6
Continuous
 62
     4
100
AcDbLine
 10
198.117748
 20
241.794872
 30
0.0
 11
100.11775
 21
241.794872
 31
0.0
  0
LINE
  5
44
100
AcDbEntity
  8
0
  6
Continuous
 62
     4
100
AcDbLine
 10
198.117748
 20
237.594872
 30
0.0
 11
100.11775
 21
237.594872
 31
0.0
  0
LINE
  5
45
100
AcDbEntity
  8
0
  6
Continuous
 62
     4
100
AcDbLine
 10
198.117748
 20
233.394872
 30
0.0
 11
100.11775
 21
233.394872
 31
0.0
  0
LINE
  5
46
100
AcDbEntity
  8
0
  6
Continuous
 62
     4
100
AcDbLine
 10
198.117748
 20
229.194872
 30
0.0
 11
100.11775
 21
229.194872
 31
0.0
  0
LINE
  5
47
100
AcDbEntity
  8
0
  6
Continuous
 62
     4
100
AcDbLine
 10
198.117748
 20
224.994872
 30
0.0
 11
100.11775
 21
224.994872
 31
0.0
  0
LINE
  5
48
100
AcDbEntity
  8
0
  6
Continuous
 62
     4
100
AcDbLine
 10
198.117748
 20
220.794872
 30
0.0
 11
100.11775
 21
220.794872
 31
0.0
  0
LINE
  5
49
100
AcDbEntity
  8
0
  6
Continuous
 62
     4
100
AcDbLine
 10
198.117748
 20
216.594872
 30
0.0
 11
100.11775
 21
216.594872
 31
0.0
  0
LINE
  5
4A
100
AcDbEntity
  8
0
  6
Continuous
 62
     4
100
AcDbLine
 10
198.117748
 20
212.394872
 30
0.0
 11
100.11775
 21
212.394872
 31
0.0
  0
LINE
  5
4B
100
AcDbEntity
  8
0
  6
Continuous
 62
     4
100
AcDbLine
 10
198.117748
 20
208.194872
 30
0.0
 11
100.11775
 21
208.194872
 31
0.0
  0
LINE
  5
4C
100
AcDbEntity
  8
0
  6
Continuous
 62
     2
100
AcDbLine
 10
323.074788
 20
69.435408
 30
0.0
 11
368.068988
 21
69.435408
 31
0.0
  0
LINE
  5
4D
100
AcDbEntity
  8
0
  6
Continuous
 62
     4
100
AcDbLine
 10
323.033358
 20
58.914383
 30
0.0
 11
368.068988
 21
58.914383
 31
0.0
  0
LINE
  5
4E
100
AcDbEntity
  8
0
  6
Continuous
 62
     4
100
AcDbLine
 10
168.441493
 20
152.180412
 30
0.0
 11
205.941488
 21
167.339992
 31
0.0
  0
LINE
  5
4F
100
AcDbEntity
  8
0
  6
DASHDOT
 62
     4
100
AcDbLine
 10
156.446678
 20
187.092582
 30
0.0
 11
156.446678
 21
84.125412
 31
0.0
  0
LINE
  5
50
100
AcDbEntity
  8
0
  6
DASHDOT
 62
     4
100
AcDbLine
 10
111.670458
 20
136.638039
 30
0.0
 11
208.013538
 21
136.638039
 31
0.0
  0
LINE
  5
51
100
AcDbEntity
  8
0
  6
Continuous
 62
     2
100
AcDbLine
 10
167.696678
 20
155.388032
 30
0.0
 11
167.696678
 21
117.888039
 31
0.0
  0
LINE
  5
52
100
AcDbEntity
  8
0
  6
Continuous
 62
     2
100
AcDbLine
 10
168.946678
 20
155.388032
 30
0.0
 11
168.946678
 21
117.888039
 31
0.0
  0
LINE
  5
53
100
AcDbEntity
  8
0
  6
Continuous
 62
     2
100
AcDbLine
 10
167.696678
 20
117.888039
 30
0.0
 11
168.946678
 21
117.888039
 31
0.0
  0
LINE
  5
54
100
AcDbEntity
  8
0
  6
Continuous
 62
     2
100
AcDbLine
 10
167.696678
 20
155.388032
 30
0.0
 11
168.946678
 21
155.388032
 31
0.0
  0
LINE
  5
55
100
AcDbEntity
  8
0
  6
Continuous
 62
     2
100
AcDbLine
 10
143.946678
 20
155.388032
 30
0.0
 11
145.196678
 21
155.388032
 31
0.0
  0
LINE
  5
56
100
AcDbEntity
  8
0
  6
Continuous
 62
     2
100
AcDbLine
 10
145.196678
 20
155.388032
 30
0.0
 11
145.196678
 21
117.888039
 31
0.0
  0
LINE
  5
57
100
AcDbEntity
  8
0
  6
Continuous
 62
     2
100
AcDbLine
 10
143.946678
 20
155.388032
 30
0.0
 11
143.946678
 21
117.888039
 31
0.0
  0
LINE
  5
58
100
AcDbEntity
  8
0
  6
Continuous
 62
     2
100
AcDbLine
 10
143.946678
 20
117.888039
 30
0.0
 11
145.196678
 21
117.888039
 31
0.0
  0
LINE
  5
59
100
AcDbEntity
  8
0
  6
Continuous
 62
     2
100
AcDbLine
 10
185.946678
 20
142.388039
 30
0.0
 11
190.976388
 21
142.388039
 31
0.0
  0
LINE
  5
5A
100
AcDbEntity
  8
0
  6
Continuous
 62
     2
100
AcDbLine
 10
183.184993
 20
140.388039
 30
0.0
 11
185.946678
 21
140.388039
 31
0.0
  0
LINE
  5
5B
100
AcDbEntity
  8
0
  6
Continuous
 62
     2
100
AcDbLine
 10
191.946678
 20
132.138039
 30
0.0
 11
191.946678
 21
141.138039
 31
0.0
  0
LINE
  5
5C
100
AcDbEntity
  8
0
  6
Continuous
 62
     2
100
AcDbLine
 10
185.946678
 20
130.888039
 30
0.0
 11
190.696678
 21
130.888039
 31
0.0
  0
LINE
  5
5D
100
AcDbEntity
  8
0
  6
Continuous
 62
     2
100
AcDbLine
 10
185.946678
 20
130.888039
 30
0.0
 11
185.946678
 21
142.388039
 31
0.0
  0
LINE
  5
5E
100
AcDbEntity
  8
0
  6
Continuous
 62
     2
100
AcDbLine
 10
183.184993
 20
132.888039
 30
0.0
 11
185.946678
 21
132.888039
 31
0.0
  0
LINE
  5
5F
100
AcDbEntity
  8
0
  6
Continuous
 62
     2
100
AcDbLine
 10
121.350629
 20
140.763039
 30
0.0
 11
129.763643
 21
140.763039
 31
0.0
  0
LINE
  5
60
100
AcDbEntity
  8
0
  6
Continuous
 62
     2
100
AcDbLine
 10
120.725629
 20
133.138039
 30
0.0
 11
120.725629
 21
140.138039
 31
0.0
  0
LINE
  5
61
100
AcDbEntity
  8
0
  6
Continuous
 62
     2
100
AcDbLine
 10
121.350629
 20
132.513039
 30
0.0
 11
129.763643
 21
132.513039
 31
0.0
  0
LINE
  5
62
100
AcDbEntity
  8
0
  6
Continuous
 62
     2
100
AcDbLine
 10
121.614558
 20
139.888039
 30
0.0
 11
129.763643
 21
139.888039
 31
0.0
  0
LINE
  5
63
100
AcDbEntity
  8
0
  6
Continuous
 62
     2
100
AcDbLine
 10
121.600629
 20
133.388039
 30
0.0
 11
129.763643
 21
133.388039
 31
0.0
  0
LINE
  5
64
100
AcDbEntity
  8
0
  6
Continuous
 62
     2
100
AcDbLine
 10
121.600629
 20
133.358885
 30
0.0
 11
121.600629
 21
139.888039
 31
0.0
  0
LINE
  5
65
100
AcDbEntity
  8
0
  6
Continuous
 62
     2
100
AcDbLine
 10
122.446678
 20
139.138039
 30
0.0
 11
122.446678
 21
134.138039
 31
0.0
  0
LINE
  5
66
100
AcDbEntity
  8
0
  6
Continuous
 62
     2
100
AcDbLine
 10
130.23123
 20
139.138039
 30
0.0
 11
122.446678
 21
139.138039
 31
0.0
  0
LINE
  5
67
100
AcDbEntity
  8
0
  6
Continuous
 62
     2
100
AcDbLine
 10
130.248998
 20
134.138039
 30
0.0
 11
122.446678
 21
134.138039
 31
0.0
  0
LINE
  5
68
100
AcDbEntity
  8
0
  6
Continuous
 62
     2
100
AcDbLine
 10
182.654157
 20
135.388039
 30
0.0
 11
193.446678
 21
135.388039
 31
0.0
  0
LINE
  5
69
100
AcDbEntity
  8
0
  6
Continuous
 62
     2
100
AcDbLine
 10
168.946678
 20
139.138039
 30
0.0
 11
182.666899
 21
139.138039
 31
0.0
  0
LINE
  5
6A
100
AcDbEntity
  8
0
  6
Continuous
 62
     2
100
AcDbLine
 10
168.946678
 20
134.138039
 30
0.0
 11
182.654157
 21
134.138039
 31
0.0
  0
LINE
  5
6B
100
AcDbEntity
  8
0
  6
Continuous
 62
     2
100
AcDbLine
 10
130.23123
 20
139.138039
 30
0.0
 11
143.946678
 21
139.138039
 31
0.0
  0
LINE
  5
6C
100
AcDbEntity
  8
0
  6
Continuous
 62
     2
100
AcDbLine
 10
145.196678
 20
139.138039
 30
0.0
 11
167.696678
 21
139.138039
 31
0.0
  0
LINE
  5
6D
100
AcDbEntity
  8
0
  6
Continuous
 62
     2
100
AcDbLine
 10
130.248998
 20
134.138039
 30
0.0
 11
143.946678
 21
134.138039
 31
0.0
  0
LINE
  5
6E
100
AcDbEntity
  8
0
  6
Continuous
 62
     2
100
AcDbLine
 10
145.196678
 20
134.138039
 30
0.0
 11
167.696678
 21
134.138039
 31
0.0
  0
LINE
  5
6F
100
AcDbEntity
  8
0
  6
Continuous
 62
     2
100
AcDbLine
 10
167.696678
 20
136.638039
 30
0.0
 11
168.946678
 21
136.638039
 31
0.0
  0
LINE
  5
70
100
AcDbEntity
  8
0
  6
Continuous
 62
     2
100
AcDbLine
 10
143.946678
 20
136.638039
 30
0.0
 11
145.196678
 21
136.638039
 31
0.0
  0
LINE
  5
71
100
AcDbEntity
  8
0
  6
Continuous
 62
     2
100
AcDbLine
 10
193.446678
 20
134.138039
 30
0.0
 11
182.654157
 21
134.138039
 31
0.0
  0
LINE
  5
72
100
AcDbEntity
  8
0
  6
Continuous
 62
     2
100
AcDbLine
 10
193.446678
 20
139.138039
 30
0.0
 11
182.727633
 21
139.138039
 31
0.0
  0
LINE
  5
73
100
AcDbEntity
  8
0
  6
Continuous
 62
     2
100
AcDbLine
 10
182.666899
 20
137.888039
 30
0.0
 11
193.446678
 21
137.888039
 31
0.0
  0
LINE
  5
74
100
AcDbEntity
  8
0
  6
Continuous
 62
     2
100
AcDbLine
 10
195.546678
 20
124.763039
 30
0.0
 11
195.546678
 21
148.513032
 31
0.0
  0
LINE
  5
75
100
AcDbEntity
  8
0
  6
Continuous
 62
     2
100
AcDbLine
 10
193.446678
 20
124.763039
 30
0.0
 11
193.446678
 21
148.513032
 31
0.0
  0
LINE
  5
76
100
AcDbEntity
  8
0
  6
Continuous
 62
     2
100
AcDbLine
 10
198.246678
 20
138.138039
 30
0.0
 11
198.496678
 21
137.888039
 31
0.0
  0
LINE
  5
77
100
AcDbEntity
  8
0
  6
Continuous
 62
     2
100
AcDbLine
 10
198.496678
 20
135.388039
 30
0.0
 11
198.496678
 21
137.888039
 31
0.0
  0
LINE
  5
78
100
AcDbEntity
  8
0
  6
Continuous
 62
     2
100
AcDbLine
 10
198.496678
 20
135.388039
 30
0.0
 11
198.246678
 21
135.138039
 31
0.0
  0
LINE
  5
79
100
AcDbEntity
  8
0
  6
Continuous
 62
     2
100
AcDbLine
 10
198.246488
 20
138.559914
 30
0.0
 11
198.246488
 21
134.716164
 31
0.0
  0
LINE
  5
7A
100
AcDbEntity
  8
0
  6
Continuous
 62
     2
100
AcDbLine
 10
198.154748
 20
138.138039
 30
0.0
 11
198.246678
 21
138.138039
 31
0.0
  0
LINE
  5
7B
100
AcDbEntity
  8
0
  6
Continuous
 62
     2
100
AcDbLine
 10
198.154748
 20
135.138039
 30
0.0
 11
198.246678
 21
135.138039
 31
0.0
  0
LINE
  5
7C
100
AcDbEntity
  8
0
  6
Continuous
 62
     2
100
AcDbLine
 10
197.996678
 20
137.906789
 30
0.0
 11
195.546678
 21
137.906789
 31
0.0
  0
LINE
  5
7D
100
AcDbEntity
  8
0
  6
Continuous
 62
     2
100
AcDbLine
 10
197.996678
 20
135.369289
 30
0.0
 11
195.546678
 21
135.369289
 31
0.0
  0
LINE
  5
7E
100
AcDbEntity
  8
0
  6
Continuous
 62
     2
100
AcDbLine
 10
195.546678
 20
138.138039
 30
0.0
 11
198.154748
 21
138.138039
 31
0.0
  0
LINE
  5
7F
100
AcDbEntity
  8
0
  6
Continuous
 62
     2
100
AcDbLine
 10
197.996678
 20
139.175539
 30
0.0
 11
195.546678
 21
139.175539
 31
0.0
  0
LINE
  5
80
100
AcDbEntity
  8
0
  6
Continuous
 62
     2
100
AcDbLine
 10
197.996678
 20
134.100539
 30
0.0
 11
195.546678
 21
134.100539
 31
0.0
  0
LINE
  5
81
100
AcDbEntity
  8
0
  6
Continuous
 62
     2
100
AcDbLine
 10
195.546678
 20
135.138039
 30
0.0
 11
198.154748
 21
135.138039
 31
0.0
  0
LINE
  5
82
100
AcDbEntity
  8
0
  6
Continuous
 62
     2
100
AcDbLine
 10
344.507068
 20
173.638032
 30
0.0
 11
344.507068
 21
99.638039
 31
0.0
  0
LINE
  5
83
100
AcDbEntity
  8
0
  6
Continuous
 62
     2
100
AcDbLine
 10
344.507068
 20
99.638039
 30
0.0
 11
345.757068
 21
99.638039
 31
0.0
  0
LINE
  5
84
100
AcDbEntity
  8
0
  6
Continuous
 62
     2
100
AcDbLine
 10
280.757068
 20
99.638039
 30
0.0
 11
282.007068
 21
99.638039
 31
0.0
  0
LINE
  5
85
100
AcDbEntity
  8
0
  6
Continuous
 62
     2
100
AcDbLine
 10
282.007068
 20
173.638032
 30
0.0
 11
282.007068
 21
99.638039
 31
0.0
  0
LINE
  5
86
100
AcDbEntity
  8
0
  6
Continuous
 62
     2
100
AcDbLine
 10
344.507068
 20
173.638032
 30
0.0
 11
345.757068
 21
173.638032
 31
0.0
  0
LINE
  5
87
100
AcDbEntity
  8
0
  6
Continuous
 62
     2
100
AcDbLine
 10
280.757068
 20
173.638032
 30
0.0
 11
282.007068
 21
173.638032
 31
0.0
  0
LINE
  5
88
100
AcDbEntity
  8
0
  6
Continuous
 62
     4
100
AcDbLine
 10
239.764578
 20
103.638039
 30
0.0
 11
276.014578
 21
103.638039
 31
0.0
  0
LINE
  5
89
100
AcDbEntity
  8
0
  6
Continuous
 62
     4
100
AcDbLine
 10
239.764578
 20
169.638032
 30
0.0
 11
276.014578
 21
169.638032
 31
0.0
  0
LINE
  5
8A
100
AcDbEntity
  8
0
  6
Continuous
 62
     4
100
AcDbLine
 10
227.264578
 20
99.638039
 30
0.0
 11
278.257068
 21
99.638039
 31
0.0
  0
LINE
  5
8B
100
AcDbEntity
  8
0
  6
Continuous
 62
     4
100
AcDbLine
 10
227.264578
 20
173.638032
 30
0.0
 11
278.257068
 21
173.638032
 31
0.0
  0
LINE
  5
8C
100
AcDbEntity
  8
0
  6
Continuous
 62
     2
100
AcDbLine
 10
335.257068
 20
164.888032
 30
0.0
 11
335.257068
 21
108.388039
 31
0.0
  0
LINE
  5
8D
100
AcDbEntity
  8
0
  6
Continuous
 62
     2
100
AcDbLine
 10
291.257068
 20
164.888032
 30
0.0
 11
291.257068
 21
108.388039
 31
0.0
  0
LINE
  5
8E
100
AcDbEntity
  8
0
  6
Continuous
 62
     2
100
AcDbLine
 10
282.007068
 20
164.888032
 30
0.0
 11
291.257068
 21
164.888032
 31
0.0
  0
LINE
  5
8F
100
AcDbEntity
  8
0
  6
Continuous
 62
     2
100
AcDbLine
 10
335.257068
 20
164.888032
 30
0.0
 11
344.507068
 21
164.888032
 31
0.0
  0
LINE
  5
90
100
AcDbEntity
  8
0
  6
Continuous
 62
     2
100
AcDbLine
 10
282.007068
 20
108.388039
 30
0.0
 11
291.257068
 21
108.388039
 31
0.0
  0
LINE
  5
91
100
AcDbEntity
  8
0
  6
Continuous
 62
     2
100
AcDbLine
 10
335.257068
 20
108.388039
 30
0.0
 11
344.507068
 21
108.388039
 31
0.0
  0
LINE
  5
92
100
AcDbEntity
  8
0
  6
Continuous
 62
     2
100
AcDbLine
 10
313.882068
 20
162.888032
 30
0.0
 11
313.882068
 21
110.388039
 31
0.0
  0
LINE
  5
93
100
AcDbEntity
  8
0
  6
Continuous
 62
     2
100
AcDbLine
 10
312.632068
 20
162.888032
 30
0.0
 11
313.882068
 21
162.888032
 31
0.0
  0
LINE
  5
94
100
AcDbEntity
  8
0
  6
Continuous
 62
     2
100
AcDbLine
 10
312.632068
 20
162.888032
 30
0.0
 11
312.632068
 21
110.388039
 31
0.0
  0
LINE
  5
95
100
AcDbEntity
  8
0
  6
Continuous
 62
     4
100
AcDbLine
 10
345.757068
 20
81.991574
 30
0.0
 11
345.757068
 21
94.138039
 31
0.0
  0
LINE
  5
96
100
AcDbEntity
  8
0
  6
Continuous
 62
     4
100
AcDbLine
 10
280.757068
 20
81.991574
 30
0.0
 11
280.757068
 21
94.138039
 31
0.0
  0
LINE
  5
97
100
AcDbEntity
  8
0
  6
Continuous
 62
     4
100
AcDbLine
 10
312.595718
 20
156.283622
 30
0.0
 11
321.617598
 21
156.283622
 31
0.0
  0
LINE
  5
98
100
AcDbEntity
  8
0
  6
Continuous
 62
     4
100
AcDbLine
 10
306.886768
 20
135.348784
 30
0.0
 11
353.337978
 21
123.819127
 31
0.0
  0
LINE
  5
99
100
AcDbEntity
  8
0
  6
Continuous
 62
     2
100
AcDbLine
 10
280.757068
 20
173.638032
 30
0.0
 11
280.757068
 21
99.638039
 31
0.0
  0
LINE
  5
9A
100
AcDbEntity
  8
0
  6
Continuous
 62
     2
100
AcDbLine
 10
345.757068
 20
173.638032
 30
0.0
 11
345.757068
 21
99.638039
 31
0.0
  0
LINE
  5
9B
100
AcDbEntity
  8
0
  6
Continuous
 62
     4
100
AcDbLine
 10
255.903208
 20
163.638032
 30
0.0
 11
278.514578
 21
163.638032
 31
0.0
  0
LINE
  5
9C
100
AcDbEntity
  8
0
  6
Continuous
 62
     4
100
AcDbLine
 10
255.903208
 20
109.638039
 30
0.0
 11
278.514578
 21
109.638039
 31
0.0
  0
LINE
  5
9D
100
AcDbEntity
  8
0
  6
Continuous
 62
     2
100
AcDbLine
 10
291.257068
 20
163.638032
 30
0.0
 11
335.257068
 21
163.638032
 31
0.0
  0
LINE
  5
9E
100
AcDbEntity
  8
0
  6
Continuous
 62
     2
100
AcDbLine
 10
291.257068
 20
110.263039
 30
0.0
 11
335.257068
 21
110.263039
 31
0.0
  0
LINE
  5
9F
100
AcDbEntity
  8
0
  6
Continuous
 62
     2
100
AcDbLine
 10
291.257068
 20
109.638039
 30
0.0
 11
335.257068
 21
109.638039
 31
0.0
  0
LINE
  5
A0
100
AcDbEntity
  8
0
  6
Continuous
 62
     2
100
AcDbLine
 10
291.257068
 20
163.638032
 30
0.0
 11
335.257068
 21
163.638032
 31
0.0
  0
LINE
  5
A1
100
AcDbEntity
  8
0
  6
Continuous
 62
     2
100
AcDbLine
 10
291.257068
 20
163.013032
 30
0.0
 11
335.257068
 21
163.013032
 31
0.0
  0
LINE
  5
A2
100
AcDbEntity
  8
0
  6
Continuous
 62
     4
100
AcDbLine
 10
314.743958
 20
137.934358
 30
0.0
 11
355.003608
 21
147.579892
 31
0.0
  0
LINE
  5
A3
100
AcDbEntity
  8
0
  6
Continuous
 62
     2
100
AcDbLine
 10
315.454608
 20
135.369289
 30
0.0
 11
315.454608
 21
137.906789
 31
0.0
  0
LINE
  5
A4
100
AcDbEntity
  8
0
  6
Continuous
 62
     2
100
AcDbLine
 10
315.454608
 20
137.906789
 30
0.0
 11
313.257068
 21
139.175539
 31
0.0
  0
LINE
  5
A5
100
AcDbEntity
  8
0
  6
Continuous
 62
     2
100
AcDbLine
 10
313.257068
 20
139.175539
 30
0.0
 11
311.059528
 21
137.906789
 31
0.0
  0
LINE
  5
A6
100
AcDbEntity
  8
0
  6
Continuous
 62
     2
100
AcDbLine
 10
311.059528
 20
137.906789
 30
0.0
 11
311.059528
 21
135.369289
 31
0.0
  0
LINE
  5
A7
100
AcDbEntity
  8
0
  6
Continuous
 62
     2
100
AcDbLine
 10
311.059528
 20
135.369289
 30
0.0
 11
313.257068
 21
134.100539
 31
0.0
  0
LINE
  5
A8
100
AcDbEntity
  8
0
  6
Continuous
 62
     2
100
AcDbLine
 10
313.257068
 20
134.100539
 30
0.0
 11
315.454608
 21
135.369289
 31
0.0
  0
LINE
  5
A9
100
AcDbEntity
  8
0
  6
Continuous
 62
     2
100
AcDbLine
 10
306.223278
 20
135.369289
 30
0.0
 11
306.223278
 21
137.906789
 31
0.0
  0
LINE
  5
AA
100
AcDbEntity
  8
0
  6
Continuous
 62
     2
100
AcDbLine
 10
306.223278
 20
137.906789
 30
0.0
 11
304.025738
 21
139.175539
 31
0.0
  0
LINE
  5
AB
100
AcDbEntity
  8
0
  6
Continuous
 62
     2
100
AcDbLine
 10
304.025738
 20
139.175539
 30
0.0
 11
301.828198
 21
137.906789
 31
0.0
  0
LINE
  5
AC
100
AcDbEntity
  8
0
  6
Continuous
 62
     2
100
AcDbLine
 10
301.828198
 20
137.906789
 30
0.0
 11
301.828198
 21
135.369289
 31
0.0
  0
LINE
  5
AD
100
AcDbEntity
  8
0
  6
Continuous
 62
     2
100
AcDbLine
 10
301.828198
 20
135.369289
 30
0.0
 11
304.025738
 21
134.100539
 31
0.0
  0
LINE
  5
AE
100
AcDbEntity
  8
0
  6
Continuous
 62
     2
100
AcDbLine
 10
304.025738
 20
134.100539
 30
0.0
 11
306.223278
 21
135.369289
 31
0.0
  0
LINE
  5
AF
100
AcDbEntity
  8
0
  6
DASHDOT
 62
     4
100
AcDbLine
 10
340.566728
 20
169.638032
 30
0.0
 11
349.383588
 21
169.638032
 31
0.0
  0
LINE
  5
B0
100
AcDbEntity
  8
0
  6
DASHDOT
 62
     4
100
AcDbLine
 10
340.566728
 20
103.638039
 30
0.0
 11
349.383588
 21
103.638039
 31
0.0
  0
LINE
  5
B1
100
AcDbEntity
  8
0
  6
DASHDOT
 62
     4
100
AcDbLine
 10
278.514578
 20
169.638032
 30
0.0
 11
286.111948
 21
169.638032
 31
0.0
  0
LINE
  5
B2
100
AcDbEntity
  8
0
  6
DASHDOT
 62
     4
100
AcDbLine
 10
278.514578
 20
103.638039
 30
0.0
 11
286.111948
 21
103.638039
 31
0.0
  0
LINE
  5
B3
100
AcDbEntity
  8
0
  6
DASHDOT
 62
     4
100
AcDbLine
 10
270.287478
 20
136.638039
 30
0.0
 11
352.667798
 21
136.638039
 31
0.0
  0
LINE
  5
B4
100
AcDbEntity
  8
0
  6
Continuous
 62
     4
100
AcDbLine
 10
126.611082
 20
132.107788
 30
0.0
 11
110.357564
 21
122.723815
 31
0.0
  0
LINE
  5
B5
100
AcDbEntity
  8
0
  6
Continuous
 62
     4
100
AcDbLine
 10
172.504845
 20
134.126243
 30
0.0
 11
204.886118
 21
115.430904
 31
0.0
  0
LINE
  5
B6
100
AcDbEntity
  8
0
  6
Continuous
 62
     4
100
AcDbLine
 10
188.071068
 20
140.176059
 30
0.0
 11
212.829568
 21
154.470372
 31
0.0
  0
LINE
  5
B7
100
AcDbEntity
  8
0
  6
Continuous
 62
     4
100
AcDbLine
 10
161.659578
 20
155.571372
 30
0.0
 11
188.765138
 21
171.220782
 31
0.0
  0
LINE
  5
B8
100
AcDbEntity
  8
0
  6
DASHDOT
 62
     4
100
AcDbLine
 10
313.257068
 20
171.265692
 30
0.0
 11
313.257068
 21
100.893358
 31
0.0
  0
LINE
  5
B9
100
AcDbEntity
  8
0
  6
Continuous
 62
     4
100
AcDbLine
 10
323.201838
 20
144.035012
 30
0.0
 11
354.057864
 21
161.849747
 31
0.0
  0
LINE
  5
BA
100
AcDbEntity
  8
0
  6
Continuous
 62
     4
100
AcDbLine
 10
298.429898
 20
164.036062
 30
0.0
 11
303.095746
 21
172.117548
 31
0.0
  0
LINE
  5
BB
100
AcDbEntity
  8
0
  6
Continuous
 62
     4
100
AcDbLine
 10
345.263298
 20
169.095592
 30
0.0
 11
353.18002
 21
173.666314
 31
0.0
  0
LINE
  5
BC
100
AcDbEntity
  8
0
  6
Continuous
 62
     4
100
AcDbLine
 10
203.949688
 20
189.875552
 30
0.0
 11
185.762561
 21
189.875552
 31
0.0
  0
LINE
  5
BD
100
AcDbEntity
  8
0
  6
Continuous
 62
     4
100
AcDbLine
 10
165.029245
 20
169.142237
 30
0.0
 11
185.762561
 21
189.875552
 31
0.0
  0
LINE
  5
BE
100
AcDbEntity
  8
0
  6
Continuous
 62
     4
100
AcDbLine
 10
345.757068
 20
83.241574
 30
0.0
 11
342.064039
 21
82.590393
 31
0.0
  0
LINE
  5
BF
100
AcDbEntity
  8
0
  6
Continuous
 62
     4
100
AcDbLine
 10
345.757068
 20
83.241574
 30
0.0
 11
342.064039
 21
83.892754
 31
0.0
  0
LINE
  5
C0
100
AcDbEntity
  8
0
  6
Continuous
 62
     4
100
AcDbLine
 10
280.757068
 20
83.241574
 30
0.0
 11
284.450098
 21
83.892754
 31
0.0
  0
LINE
  5
C1
100
AcDbEntity
  8
0
  6
Continuous
 62
     4
100
AcDbLine
 10
280.757068
 20
83.241574
 30
0.0
 11
284.450098
 21
82.590393
 31
0.0
  0
LINE
  5
C2
100
AcDbEntity
  8
0
  6
Continuous
 62
     4
100
AcDbLine
 10
280.757068
 20
83.241574
 30
0.0
 11
345.757068
 21
83.241574
 31
0.0
  0
LINE
  5
C3
100
AcDbEntity
  8
0
  6
Continuous
 62
     4
100
AcDbLine
 10
257.153208
 20
109.638039
 30
0.0
 11
256.502027
 21
113.331068
 31
0.0
  0
LINE
  5
C4
100
AcDbEntity
  8
0
  6
Continuous
 62
     4
100
AcDbLine
 10
257.153208
 20
109.638039
 30
0.0
 11
257.804388
 21
113.331068
 31
0.0
  0
LINE
  5
C5
100
AcDbEntity
  8
0
  6
Continuous
 62
     4
100
AcDbLine
 10
257.153208
 20
163.638039
 30
0.0
 11
257.804388
 21
159.945009
 31
0.0
  0
LINE
  5
C6
100
AcDbEntity
  8
0
  6
Continuous
 62
     4
100
AcDbLine
 10
257.153208
 20
163.638039
 30
0.0
 11
256.502027
 21
159.945009
 31
0.0
  0
LINE
  5
C7
100
AcDbEntity
  8
0
  6
Continuous
 62
     4
100
AcDbLine
 10
257.153208
 20
163.638039
 30
0.0
 11
257.153208
 21
109.638039
 31
0.0
  0
LINE
  5
C8
100
AcDbEntity
  8
0
  6
Continuous
 62
     4
100
AcDbLine
 10
228.514578
 20
99.638039
 30
0.0
 11
227.863397
 21
103.331068
 31
0.0
  0
LINE
  5
C9
100
AcDbEntity
  8
0
  6
Continuous
 62
     4
100
AcDbLine
 10
228.514578
 20
99.638039
 30
0.0
 11
229.165758
 21
103.331068
 31
0.0
  0
LINE
  5
CA
100
AcDbEntity
  8
0
  6
Continuous
 62
     4
100
AcDbLine
 10
228.514578
 20
173.638039
 30
0.0
 11
229.165758
 21
169.945009
 31
0.0
  0
LINE
  5
CB
100
AcDbEntity
  8
0
  6
Continuous
 62
     4
100
AcDbLine
 10
228.514578
 20
173.638039
 30
0.0
 11
227.863397
 21
169.945009
 31
0.0
  0
LINE
  5
CC
100
AcDbEntity
  8
0
  6
Continuous
 62
     4
100
AcDbLine
 10
228.514578
 20
173.638039
 30
0.0
 11
228.514578
 21
99.638039
 31
0.0
  0
LINE
  5
CD
100
AcDbEntity
  8
0
  6
Continuous
 62
     4
100
AcDbLine
 10
241.014578
 20
103.638039
 30
0.0
 11
240.363397
 21
107.331068
 31
0.0
  0
LINE
  5
CE
100
AcDbEntity
  8
0
  6
Continuous
 62
     4
100
AcDbLine
 10
241.014578
 20
103.638039
 30
0.0
 11
241.665758
 21
107.331068
 31
0.0
  0
LINE
  5
CF
100
AcDbEntity
  8
0
  6
Continuous
 62
     4
100
AcDbLine
 10
241.014578
 20
169.638039
 30
0.0
 11
241.665758
 21
165.945009
 31
0.0
  0
LINE
  5
D0
100
AcDbEntity
  8
0
  6
Continuous
 62
     4
100
AcDbLine
 10
241.014578
 20
169.638039
 30
0.0
 11
240.363397
 21
165.945009
 31
0.0
  0
LINE
  5
D1
100
AcDbEntity
  8
0
  6
Continuous
 62
     4
100
AcDbLine
 10
241.014578
 20
169.638039
 30
0.0
 11
241.014578
 21
103.638039
 31
0.0
  0
CIRCLE
  5
D2
100
AcDbEntity
  8
0
  6
Continuous
 62
     4
100
AcDbCircle
 10
208.798478
 20
167.865082
 30
0.0
 40
3.125
  0
CIRCLE
  5
D3
100
AcDbEntity
  8
0
  6
Continuous
 62
     2
100
AcDbCircle
 10
156.446678
 20
136.638039
 30
0.0
 40
27.0
  0
CIRCLE
  5
D4
100
AcDbEntity
  8
0
  6
Continuous
 62
     2
100
AcDbCircle
 10
156.446678
 20
136.638039
 30
0.0
 40
26.375
  0
CIRCLE
  5
D5
100
AcDbEntity
  8
0
  6
Continuous
 62
     2
100
AcDbCircle
 10
156.446678
 20
136.638039
 30
0.0
 40
26.25
  0
CIRCLE
  5
D6
100
AcDbEntity
  8
0
  6
Continuous
 62
     2
100
AcDbCircle
 10
156.446678
 20
136.638039
 30
0.0
 40
37.0
  0
CIRCLE
  5
D7
100
AcDbEntity
  8
0
  6
DASHDOT
 62
     4
100
AcDbCircle
 10
156.446678
 20
136.638039
 30
0.0
 40
33.0
  0
CIRCLE
  5
D8
100
AcDbEntity
  8
0
  6
Continuous
 62
     2
100
AcDbCircle
 10
147.90565
 20
168.513582
 30
0.0
 40
1.25
  0
CIRCLE
  5
D9
100
AcDbEntity
  8
0
  6
Continuous
 62
     2
100
AcDbCircle
 10
133.112154
 20
159.972562
 30
0.0
 40
1.25
  0
CIRCLE
  5
DA
100
AcDbEntity
  8
0
  6
Continuous
 62
     2
100
AcDbCircle
 10
124.571126
 20
145.179062
 30
0.0
 40
1.25
  0
CIRCLE
  5
DB
100
AcDbEntity
  8
0
  6
Continuous
 62
     2
100
AcDbCircle
 10
124.571126
 20
128.09701
 30
0.0
 40
1.25
  0
CIRCLE
  5
DC
100
AcDbEntity
  8
0
  6
Continuous
 62
     2
100
AcDbCircle
 10
133.112154
 20
113.303515
 30
0.0
 40
1.25
  0
CIRCLE
  5
DD
100
AcDbEntity
  8
0
  6
Continuous
 62
     2
100
AcDbCircle
 10
147.90565
 20
104.762486
 30
0.0
 40
1.25
  0
CIRCLE
  5
DE
100
AcDbEntity
  8
0
  6
Continuous
 62
     2
100
AcDbCircle
 10
164.987706
 20
104.762486
 30
0.0
 40
1.25
  0
CIRCLE
  5
DF
100
AcDbEntity
  8
0
  6
Continuous
 62
     2
100
AcDbCircle
 10
179.781202
 20
113.303515
 30
0.0
 40
1.25
  0
CIRCLE
  5
E0
100
AcDbEntity
  8
0
  6
Continuous
 62
     2
100
AcDbCircle
 10
188.322228
 20
128.09701
 30
0.0
 40
1.25
  0
CIRCLE
  5
E1
100
AcDbEntity
  8
0
  6
Continuous
 62
     2
100
AcDbCircle
 10
188.322228
 20
145.179062
 30
0.0
 40
1.25
  0
CIRCLE
  5
E2
100
AcDbEntity
  8
0
  6
Continuous
 62
     2
100
AcDbCircle
 10
179.781202
 20
159.972562
 30
0.0
 40
1.25
  0
CIRCLE
  5
E3
100
AcDbEntity
  8
0
  6
Continuous
 62
     2
100
AcDbCircle
 10
164.987706
 20
168.513582
 30
0.0
 40
1.25
  0
CIRCLE
  5
E4
100
AcDbEntity
  8
0
  6
Continuous
 62
     4
100
AcDbCircle
 10
356.326048
 20
174.385992
 30
0.0
 40
3.125
  0
CIRCLE
  5
E5
100
AcDbEntity
  8
0
  6
Continuous
 62
     4
100
AcDbCircle
 10
304.673348
 20
174.857732
 30
0.0
 40
3.125
  0
CIRCLE
  5
E6
100
AcDbEntity
  8
0
  6
Continuous
 62
     4
100
AcDbCircle
 10
356.819808
 20
162.483992
 30
0.0
 40
3.125
  0
CIRCLE
  5
E7
100
AcDbEntity
  8
0
  6
Continuous
 62
     4
100
AcDbCircle
 10
356.344248
 20
122.822898
 30
0.0
 40
3.125
  0
CIRCLE
  5
E8
100
AcDbEntity
  8
0
  6
Continuous
 62
     2
100
AcDbCircle
 10
313.257068
 20
136.638039
 30
0.0
 40
12.5
  0
CIRCLE
  5
E9
100
AcDbEntity
  8
0
  6
Continuous
 62
     4
100
AcDbCircle
 10
358.028178
 20
148.365762
 30
0.0
 40
3.125
  0
CIRCLE
  5
EA
100
AcDbEntity
  8
0
  6
Continuous
 62
     2
100
AcDbCircle
 10
307.378378
 20
129.603149
 30
0.0
 40
1.751092
  0
CIRCLE
  5
EB
100
AcDbEntity
  8
0
  6
Continuous
 62
     2
100
AcDbCircle
 10
318.483238
 20
144.574472
 30
0.0
 40
1.751092
  0
CIRCLE
  5
EC
100
AcDbEntity
  8
0
  6
Continuous
 62
     4
100
AcDbCircle
 10
313.257068
 20
136.638039
 30
0.0
 40
11.875
  0
CIRCLE
  5
ED
100
AcDbEntity
  8
0
  6
Continuous
 62
     2
100
AcDbCircle
 10
313.257068
 20
136.638039
 30
0.0
 40
1.5
  0
CIRCLE
  5
EE
100
AcDbEntity
  8
0
  6
Continuous
 62
     2
100
AcDbCircle
 10
313.257068
 20
136.638039
 30
0.0
 40
2.1975
  0
CIRCLE
  5
EF
100
AcDbEntity
  8
0
  6
Continuous
 62
     2
100
AcDbCircle
 10
304.025738
 20
136.638039
 30
0.0
 40
1.5
  0
CIRCLE
  5
F0
100
AcDbEntity
  8
0
  6
Continuous
 62
     2
100
AcDbCircle
 10
304.025738
 20
136.638039
 30
0.0
 40
2.1975
  0
CIRCLE
  5
F1
100
AcDbEntity
  8
0
  6
Continuous
 62
     4
100
AcDbCircle
 10
108.171218
 20
120.660685
 30
0.0
 40
3.125
  0
CIRCLE
  5
F2
100
AcDbEntity
  8
0
  6
Continuous
 62
     4
100
AcDbCircle
 10
207.766678
 20
114.314806
 30
0.0
 40
3.125
  0
CIRCLE
  5
F3
100
AcDbEntity
  8
0
  6
Continuous
 62
     4
100
AcDbCircle
 10
215.691838
 20
155.198042
 30
0.0
 40
3.125
  0
CIRCLE
  5
F4
100
AcDbEntity
  8
0
  6
Continuous
 62
     4
100
AcDbCircle
 10
191.015408
 20
172.317542
 30
0.0
 40
3.125
  0
ARC
  5
F5
100
AcDbEntity
  8
0
  6
Continuous
 62
     2
100
AcDbCircle
 10
190.696678
 20
141.138039
 30
0.0
 40
1.25
100
AcDbArc
 50
0.0
 51
90.0
  0
ARC
  5
F6
100
AcDbEntity
  8
0
  6
Continuous
 62
     2
100
AcDbCircle
 10
190.696678
 20
132.138039
 30
0.0
 40
1.25
100
AcDbArc
 50
270.0
 51
0.0
  0
ARC
  5
F7
100
AcDbEntity
  8
0
  6
Continuous
 62
     2
100
AcDbCircle
 10
121.350629
 20
140.138039
 30
0.0
 40
0.625
100
AcDbArc
 50
90.0
 51
180.0
  0
ARC
  5
F8
100
AcDbEntity
  8
0
  6
Continuous
 62
     2
100
AcDbCircle
 10
121.350629
 20
133.138039
 30
0.0
 40
0.625
100
AcDbArc
 50
180.0
 51
270.0
  0
ARC
  5
F9
100
AcDbEntity
  8
0
  6
Continuous
 62
     2
100
AcDbCircle
 10
194.902218
 20
136.638039
 30
0.0
 40
3.344453
100
AcDbArc
 50
337.70598
 51
22.294013
  0
ARC
  5
FA
100
AcDbEntity
  8
0
  6
Continuous
 62
     2
100
AcDbCircle
 10
197.316808
 20
134.734914
 30
0.0
 40
0.929863
100
AcDbArc
 50
316.98232
 51
43.017675
  0
ARC
  5
FB
100
AcDbEntity
  8
0
  6
Continuous
 62
     2
100
AcDbCircle
 10
197.316808
 20
138.541164
 30
0.0
 40
0.929863
100
AcDbArc
 50
316.98232
 51
43.017675
  0
ARC
  5
FC
100
AcDbEntity
  8
0
  6
Continuous
 62
     2
100
AcDbCircle
 10
313.257068
 20
145.866602
 30
0.0
 40
1.15625
100
AcDbArc
 50
270.0
 51
95.88552
  0
ARC
  5
FD
100
AcDbEntity
  8
0
  6
Continuous
 62
     2
100
AcDbCircle
 10
304.028498
 20
136.638039
 30
0.0
 40
1.15625
100
AcDbArc
 50
180.0
 51
0.64694
  0
ARC
  5
FE
100
AcDbEntity
  8
0
  6
Continuous
 62
     2
100
AcDbCircle
 10
314.317728
 20
135.577379
 30
0.0
 40
11.5
100
AcDbArc
 50
164.27939
 51
174.70801
  0
ARC
  5
FF
100
AcDbEntity
  8
0
  6
Continuous
 62
     2
100
AcDbCircle
 10
315.024828
 20
134.870272
 30
0.0
 40
10.0
100
AcDbArc
 50
160.65856
 51
169.81793
  0
ARC
  5
100
100
AcDbEntity
  8
0
  6
Continuous
 62
     2
100
AcDbCircle
 10
315.024828
 20
134.870272
 30
0.0
 40
10.0
100
AcDbArc
 50
100.18206
 51
160.65856
  0
ARC
  5
101
100
AcDbEntity
  8
0
  6
Continuous
 62
     2
100
AcDbCircle
 10
314.317728
 20
135.577379
 30
0.0
 40
11.5
100
AcDbArc
 50
95.291986
 51
164.27939
  0
ELLIPSE
  5
102
100
AcDbEntity
  8
0
  6
Continuous
 62
     2
100
AcDbEllipse
 10
194.496678
 20
148.513032
 30
0.0
 11
1.05
 21
0.0
 31
0.0
210
0.0
220
0.0
230
1.0
 40
0.595238
 41
0.0
 42
3.1415926535897931
  0
ELLIPSE
  5
103
100
AcDbEntity
  8
0
  6
Continuous
 62
     2
100
AcDbEllipse
 10
194.496678
 20
124.763039
 30
0.0
 11
1.05
 21
0.0
 31
0.0
210
0.0
220
0.0
230
1.0
 40
0.595238
 41
3.1415926535897931
 42
0.0
  0
TEXT
  5
104
100
AcDbEntity
  8
0
 62
     7
100
AcDbText
 10
324.054548
 20
54.475037
 30
0.0
 40
3.0
  1
ﾎﾞﾘｭｰﾑﾀﾞﾝﾊﾟｰ(ﾊﾝﾄﾞﾙ式)
 41
0.7695
  7
FontTableH_0
 72
     5
 11
370.517048
 21
54.475037
 31
0.0
100
AcDbText
  0
TEXT
  5
105
100
AcDbEntity
  8
0
 62
     7
100
AcDbText
 10
102.145561
 20
237.986092
 30
0.0
 40
3.0
  1
呼　径
 41
0.7695
  7
FontTableH_0
 72
     5
 11
111.145561
 21
237.986092
 31
0.0
100
AcDbText
  0
TEXT
  5
106
100
AcDbEntity
  8
0
 62
     7
100
AcDbText
 10
102.018728
 20
229.477812
 30
0.0
 40
3.0
  1
１００
 41
0.7695
  7
FontTableH_0
 72
     5
 11
111.018728
 21
229.477812
 31
0.0
100
AcDbText
  0
TEXT
  5
107
100
AcDbEntity
  8
0
 62
     7
100
AcDbText
 10
102.018728
 20
225.277812
 30
0.0
 40
3.0
  1
１２５
 41
0.7695
  7
FontTableH_0
 72
     5
 11
111.018728
 21
225.277812
 31
0.0
100
AcDbText
  0
TEXT
  5
108
100
AcDbEntity
  8
0
 62
     7
100
AcDbText
 10
102.018728
 20
221.077812
 30
0.0
 40
3.0
  1
１５０
 41
0.7695
  7
FontTableH_0
 72
     5
 11
111.018728
 21
221.077812
 31
0.0
100
AcDbText
  0
TEXT
  5
109
100
AcDbEntity
  8
0
 62
     7
100
AcDbText
 10
102.018728
 20
216.877812
 30
0.0
 40
3.0
  1
２００
 41
0.7695
  7
FontTableH_0
 72
     5
 11
111.018728
 21
216.877812
 31
0.0
100
AcDbText
  0
TEXT
  5
10A
100
AcDbEntity
  8
0
 62
     7
100
AcDbText
 10
102.018728
 20
212.677812
 30
0.0
 40
3.0
  1
２５０
 41
0.7695
  7
FontTableH_0
 72
     5
 11
111.018728
 21
212.677812
 31
0.0
100
AcDbText
  0
TEXT
  5
10B
100
AcDbEntity
  8
0
 62
     7
100
AcDbText
 10
102.018728
 20
208.477812
 30
0.0
 40
3.0
  1
３００
 41
0.7695
  7
FontTableH_0
 72
     5
 11
111.018728
 21
208.477812
 31
0.0
100
AcDbText
  0
TEXT
  5
10C
100
AcDbEntity
  8
0
 62
     7
100
AcDbText
 10
103.864525
 20
233.555502
 30
0.0
 40
3.0
  1
７５
 41
0.7695
  7
FontTableH_0
 72
     5
 11
109.864525
 21
233.555502
 31
0.0
100
AcDbText
  0
TEXT
  5
10D
100
AcDbEntity
  8
0
 62
     7
100
AcDbText
 10
117.783317
 20
237.986092
 30
0.0
 40
3.0
  1
Ａ
 41
0.7695
  7
FontTableH_0
 72
     5
 11
120.783317
 21
237.986092
 31
0.0
100
AcDbText
  0
TEXT
  5
10E
100
AcDbEntity
  8
0
 62
     7
100
AcDbText
 10
115.160883
 20
217.065132
 30
0.0
 40
3.0
  1
２１６
 41
0.7695
  7
FontTableH_0
 72
     5
 11
124.160883
 21
217.065132
 31
0.0
100
AcDbText
  0
TEXT
  5
10F
100
AcDbEntity
  8
0
 62
     7
100
AcDbText
 10
115.160883
 20
225.465132
 30
0.0
 40
3.0
  1
１４０
 41
0.7695
  7
FontTableH_0
 72
     5
 11
124.160883
 21
225.465132
 31
0.0
100
AcDbText
  0
TEXT
  5
110
100
AcDbEntity
  8
0
 62
     7
100
AcDbText
 10
115.160883
 20
221.265132
 30
0.0
 40
3.0
  1
１６５
 41
0.7695
  7
FontTableH_0
 72
     5
 11
124.160883
 21
221.265132
 31
0.0
100
AcDbText
  0
TEXT
  5
111
100
AcDbEntity
  8
0
 62
     7
100
AcDbText
 10
115.160883
 20
212.865132
 30
0.0
 40
3.0
  1
２６７
 41
0.7695
  7
FontTableH_0
 72
     5
 11
124.160883
 21
212.865132
 31
0.0
100
AcDbText
  0
TEXT
  5
112
100
AcDbEntity
  8
0
 62
     7
100
AcDbText
 10
115.160883
 20
208.665132
 30
0.0
 40
3.0
  1
３１８
 41
0.7695
  7
FontTableH_0
 72
     5
 11
124.160883
 21
208.665132
 31
0.0
100
AcDbText
  0
TEXT
  5
113
100
AcDbEntity
  8
0
 62
     7
100
AcDbText
 10
117.289793
 20
233.747092
 30
0.0
 40
3.0
  1
８９
 41
0.7695
  7
FontTableH_0
 72
     5
 11
123.289793
 21
233.747092
 31
0.0
100
AcDbText
  0
TEXT
  5
114
100
AcDbEntity
  8
0
 62
     7
100
AcDbText
 10
115.160883
 20
229.665132
 30
0.0
 40
3.0
  1
１１４
 41
0.7695
  7
FontTableH_0
 72
     5
 11
124.160883
 21
229.665132
 31
0.0
100
AcDbText
  0
TEXT
  5
115
100
AcDbEntity
  8
0
 62
     7
100
AcDbText
 10
131.24974
 20
237.986092
 30
0.0
 40
3.0
  1
Ｂ
 41
0.7695
  7
FontTableH_0
 72
     5
 11
134.24974
 21
237.986092
 31
0.0
100
AcDbText
  0
TEXT
  5
116
100
AcDbEntity
  8
0
 62
     7
100
AcDbText
 10
128.252672
 20
233.865132
 30
0.0
 40
3.0
  1
１４０
 41
0.7695
  7
FontTableH_0
 72
     5
 11
137.252672
 21
233.865132
 31
0.0
100
AcDbText
  0
TEXT
  5
117
100
AcDbEntity
  8
0
 62
     7
100
AcDbText
 10
128.252672
 20
229.665132
 30
0.0
 40
3.0
  1
１７５
 41
0.7695
  7
FontTableH_0
 72
     5
 11
137.252672
 21
229.665132
 31
0.0
100
AcDbText
  0
TEXT
  5
118
100
AcDbEntity
  8
0
 62
     7
100
AcDbText
 10
128.252672
 20
225.465132
 30
0.0
 40
3.0
  1
２００
 41
0.7695
  7
FontTableH_0
 72
     5
 11
137.252672
 21
225.465132
 31
0.0
100
AcDbText
  0
TEXT
  5
119
100
AcDbEntity
  8
0
 62
     7
100
AcDbText
 10
128.252672
 20
221.265132
 30
0.0
 40
3.0
  1
２３０
 41
0.7695
  7
FontTableH_0
 72
     5
 11
137.252672
 21
221.265132
 31
0.0
100
AcDbText
  0
TEXT
  5
11A
100
AcDbEntity
  8
0
 62
     7
100
AcDbText
 10
128.252672
 20
217.065132
 30
0.0
 40
3.0
  1
２９６
 41
0.7695
  7
FontTableH_0
 72
     5
 11
137.252672
 21
217.065132
 31
0.0
100
AcDbText
  0
TEXT
  5
11B
100
AcDbEntity
  8
0
 62
     7
100
AcDbText
 10
128.252672
 20
212.865132
 30
0.0
 40
3.0
  1
３５８
 41
0.7695
  7
FontTableH_0
 72
     5
 11
137.252672
 21
212.865132
 31
0.0
100
AcDbText
  0
TEXT
  5
11C
100
AcDbEntity
  8
0
 62
     7
100
AcDbText
 10
128.252672
 20
208.665132
 30
0.0
 40
3.0
  1
４２１
 41
0.7695
  7
FontTableH_0
 72
     5
 11
137.252672
 21
208.665132
 31
0.0
100
AcDbText
  0
TEXT
  5
11D
100
AcDbEntity
  8
0
 62
     7
100
AcDbText
 10
141.252281
 20
233.792422
 30
0.0
 40
3.0
  1
１１４
 41
0.7695
  7
FontTableH_0
 72
     5
 11
150.252281
 21
233.792422
 31
0.0
100
AcDbText
  0
TEXT
  5
11E
100
AcDbEntity
  8
0
 62
     7
100
AcDbText
 10
141.252281
 20
208.592422
 30
0.0
 40
3.0
  1
３８２
 41
0.7695
  7
FontTableH_0
 72
     5
 11
150.252281
 21
208.592422
 31
0.0
100
AcDbText
  0
TEXT
  5
11F
100
AcDbEntity
  8
0
 62
     7
100
AcDbText
 10
141.252281
 20
212.792422
 30
0.0
 40
3.0
  1
３２２
 41
0.7695
  7
FontTableH_0
 72
     5
 11
150.252281
 21
212.792422
 31
0.0
100
AcDbText
  0
TEXT
  5
120
100
AcDbEntity
  8
0
 62
     7
100
AcDbText
 10
141.252281
 20
216.992422
 30
0.0
 40
3.0
  1
２６４
 41
0.7695
  7
FontTableH_0
 72
     5
 11
150.252281
 21
216.992422
 31
0.0
100
AcDbText
  0
TEXT
  5
121
100
AcDbEntity
  8
0
 62
     7
100
AcDbText
 10
141.252281
 20
221.192422
 30
0.0
 40
3.0
  1
２０６
 41
0.7695
  7
FontTableH_0
 72
     5
 11
150.252281
 21
221.192422
 31
0.0
100
AcDbText
  0
TEXT
  5
122
100
AcDbEntity
  8
0
 62
     7
100
AcDbText
 10
141.252281
 20
225.392422
 30
0.0
 40
3.0
  1
１７６
 41
0.7695
  7
FontTableH_0
 72
     5
 11
150.252281
 21
225.392422
 31
0.0
100
AcDbText
  0
TEXT
  5
123
100
AcDbEntity
  8
0
 62
     7
100
AcDbText
 10
141.252281
 20
229.592422
 30
0.0
 40
3.0
  1
１５１
 41
0.7695
  7
FontTableH_0
 72
     5
 11
150.252281
 21
229.592422
 31
0.0
100
AcDbText
  0
TEXT
  5
124
100
AcDbEntity
  8
0
 62
     7
100
AcDbText
 10
140.975228
 20
237.952742
 30
0.0
 40
3.0
  1
ＰＣＤ
 41
0.7695
  7
FontTableH_0
 72
     5
 11
149.975228
 21
237.952742
 31
0.0
100
AcDbText
  0
TEXT
  5
125
100
AcDbEntity
  8
0
 62
     7
100
AcDbText
 10
157.27931
 20
237.745752
 30
0.0
 40
3.0
  1
Ｌ
 41
0.7695
  7
FontTableH_0
 72
     5
 11
160.27931
 21
237.745752
 31
0.0
100
AcDbText
  0
TEXT
  5
126
100
AcDbEntity
  8
0
 62
     7
100
AcDbText
 10
154.282242
 20
217.012102
 30
0.0
 40
3.0
  1
２６０
 41
0.7695
  7
FontTableH_0
 72
     5
 11
163.282242
 21
217.012102
 31
0.0
100
AcDbText
  0
TEXT
  5
127
100
AcDbEntity
  8
0
 62
     7
100
AcDbText
 10
154.282242
 20
233.812102
 30
0.0
 40
3.0
  1
１９０
 41
0.7695
  7
FontTableH_0
 72
     5
 11
163.282242
 21
233.812102
 31
0.0
100
AcDbText
  0
TEXT
  5
128
100
AcDbEntity
  8
0
 62
     7
100
AcDbText
 10
154.282242
 20
229.612102
 30
0.0
 40
3.0
  1
１９０
 41
0.7695
  7
FontTableH_0
 72
     5
 11
163.282242
 21
229.612102
 31
0.0
100
AcDbText
  0
TEXT
  5
129
100
AcDbEntity
  8
0
 62
     7
100
AcDbText
 10
154.282242
 20
225.412102
 30
0.0
 40
3.0
  1
１９０
 41
0.7695
  7
FontTableH_0
 72
     5
 11
163.282242
 21
225.412102
 31
0.0
100
AcDbText
  0
TEXT
  5
12A
100
AcDbEntity
  8
0
 62
     7
100
AcDbText
 10
154.282242
 20
221.212102
 30
0.0
 40
3.0
  1
２２０
 41
0.7695
  7
FontTableH_0
 72
     5
 11
163.282242
 21
221.212102
 31
0.0
100
AcDbText
  0
TEXT
  5
12B
100
AcDbEntity
  8
0
 62
     7
100
AcDbText
 10
154.282242
 20
212.812102
 30
0.0
 40
3.0
  1
３１０
 41
0.7695
  7
FontTableH_0
 72
     5
 11
163.282242
 21
212.812102
 31
0.0
100
AcDbText
  0
TEXT
  5
12C
100
AcDbEntity
  8
0
 62
     7
100
AcDbText
 10
154.282242
 20
208.612102
 30
0.0
 40
3.0
  1
３５０
 41
0.7695
  7
FontTableH_0
 72
     5
 11
163.282242
 21
208.612102
 31
0.0
100
AcDbText
  0
TEXT
  5
12D
100
AcDbEntity
  8
0
 62
     7
100
AcDbText
 10
170.407609
 20
237.922802
 30
0.0
 40
3.0
  1
ｔ
 41
0.7695
  7
FontTableH_0
 72
     5
 11
173.407609
 21
237.922802
 31
0.0
100
AcDbText
  0
TEXT
  5
12E
100
AcDbEntity
  8
0
 62
     7
100
AcDbText
 10
170.407609
 20
233.801832
 30
0.0
 40
3.0
  1
５
 41
0.7695
  7
FontTableH_0
 72
     5
 11
173.407609
 21
233.801832
 31
0.0
100
AcDbText
  0
TEXT
  5
12F
100
AcDbEntity
  8
0
 62
     7
100
AcDbText
 10
170.407609
 20
229.601832
 30
0.0
 40
3.0
  1
５
 41
0.7695
  7
FontTableH_0
 72
     5
 11
173.407609
 21
229.601832
 31
0.0
100
AcDbText
  0
TEXT
  5
130
100
AcDbEntity
  8
0
 62
     7
100
AcDbText
 10
170.407609
 20
225.401832
 30
0.0
 40
3.0
  1
５
 41
0.7695
  7
FontTableH_0
 72
     5
 11
173.407609
 21
225.401832
 31
0.0
100
AcDbText
  0
TEXT
  5
131
100
AcDbEntity
  8
0
 62
     7
100
AcDbText
 10
170.407609
 20
221.201832
 30
0.0
 40
3.0
  1
５
 41
0.7695
  7
FontTableH_0
 72
     5
 11
173.407609
 21
221.201832
 31
0.0
100
AcDbText
  0
TEXT
  5
132
100
AcDbEntity
  8
0
 62
     7
100
AcDbText
 10
170.407609
 20
217.001832
 30
0.0
 40
3.0
  1
５
 41
0.7695
  7
FontTableH_0
 72
     5
 11
173.407609
 21
217.001832
 31
0.0
100
AcDbText
  0
TEXT
  5
133
100
AcDbEntity
  8
0
 62
     7
100
AcDbText
 10
170.407609
 20
212.801832
 30
0.0
 40
3.0
  1
５
 41
0.7695
  7
FontTableH_0
 72
     5
 11
173.407609
 21
212.801832
 31
0.0
100
AcDbText
  0
TEXT
  5
134
100
AcDbEntity
  8
0
 62
     7
100
AcDbText
 10
170.407609
 20
208.601832
 30
0.0
 40
3.0
  1
５
 41
0.7695
  7
FontTableH_0
 72
     5
 11
173.407609
 21
208.601832
 31
0.0
100
AcDbText
  0
TEXT
  5
135
100
AcDbEntity
  8
0
 62
     7
100
AcDbText
 10
324.474428
 20
61.658341
 30
0.0
 40
4.0
  1
東都積水株式会社
 41
0.7695
  7
FontTableH_0
 72
     5
 11
356.474428
 21
61.658341
 31
0.0
100
AcDbText
  0
TEXT
  5
136
100
AcDbEntity
  8
0
 62
     7
100
AcDbText
 10
319.018068
 20
156.283622
 30
0.0
 40
4.0
  1
t
 41
0.7695
  7
FontTableH_0
 72
     5
 11
322.018068
 21
156.283622
 31
0.0
100
AcDbText
  0
TEXT
  5
137
100
AcDbEntity
  8
0
 62
     7
100
AcDbText
 10
305.495688
 20
127.741545
 30
0.0
 40
4.0
  1
Ｓ
 41
0.7695
  7
FontTableH_0
 72
     5
 11
309.495688
 21
127.741545
 31
0.0
100
AcDbText
  0
TEXT
  5
138
100
AcDbEntity
  8
0
 62
     7
100
AcDbText
 10
316.539788
 20
142.774311
 30
0.0
 40
4.0
  1
Ｏ
 41
0.7695
  7
FontTableH_0
 72
     5
 11
320.539788
 21
142.774311
 31
0.0
100
AcDbText
  0
TEXT
  5
139
100
AcDbEntity
  8
0
 62
     7
100
AcDbText
 10
206.882838
 20
112.54713
 30
0.0
 40
4.0
  1
5
 41
0.7695
  7
FontTableH_0
 72
     5
 11
209.882838
 21
112.54713
 31
0.0
100
AcDbText
  0
TEXT
  5
13A
100
AcDbEntity
  8
0
 62
     7
100
AcDbText
 10
190.131568
 20
170.549872
 30
0.0
 40
4.0
  1
6
 41
0.7695
  7
FontTableH_0
 72
     5
 11
193.131568
 21
170.549872
 31
0.0
100
AcDbText
  0
TEXT
  5
13B
100
AcDbEntity
  8
0
 62
     7
100
AcDbText
 10
355.793878
 20
172.500562
 30
0.0
 40
4.0
  1
2
 41
0.7695
  7
FontTableH_0
 72
     5
 11
358.793878
 21
172.500562
 31
0.0
100
AcDbText
  0
TEXT
  5
13C
100
AcDbEntity
  8
0
 62
     7
100
AcDbText
 10
207.989088
 20
165.623102
 30
0.0
 40
4.0
  1
7
 41
0.7695
  7
FontTableH_0
 72
     5
 11
210.989088
 21
165.623102
 31
0.0
100
AcDbText
  0
TEXT
  5
13D
100
AcDbEntity
  8
0
 62
     7
100
AcDbText
 10
214.566818
 20
153.364612
 30
0.0
 40
4.0
  1
4
 41
0.7695
  7
FontTableH_0
 72
     5
 11
217.566818
 21
153.364612
 31
0.0
100
AcDbText
  0
TEXT
  5
13E
100
AcDbEntity
  8
0
 62
     7
100
AcDbText
 10
106.034305
 20
118.68205
 30
0.0
 40
4.0
  1
10
 41
0.7695
  7
FontTableH_0
 72
     5
 11
112.034305
 21
118.68205
 31
0.0
100
AcDbText
  0
TEXT
  5
13F
100
AcDbEntity
  8
0
 62
     7
100
AcDbText
 10
303.665138
 20
172.798812
 30
0.0
 40
4.0
  1
1
 41
0.7695
  7
FontTableH_0
 72
     5
 11
306.665138
 21
172.798812
 31
0.0
100
AcDbText
  0
TEXT
  5
140
100
AcDbEntity
  8
0
 62
     7
100
AcDbText
 10
355.949758
 20
160.241332
 30
0.0
 40
4.0
  1
3
 41
0.7695
  7
FontTableH_0
 72
     5
 11
358.949758
 21
160.241332
 31
0.0
100
AcDbText
  0
TEXT
  5
141
100
AcDbEntity
  8
0
 62
     7
100
AcDbText
 10
357.145708
 20
146.487892
 30
0.0
 40
4.0
  1
9
 41
0.7695
  7
FontTableH_0
 72
     5
 11
360.145708
 21
146.487892
 31
0.0
100
AcDbText
  0
TEXT
  5
142
100
AcDbEntity
  8
0
 62
     7
100
AcDbText
 10
355.650768
 20
120.774964
 30
0.0
 40
4.0
  1
8
 41
0.7695
  7
FontTableH_0
 72
     5
 11
358.650768
 21
120.774964
 31
0.0
100
AcDbText
  0
TEXT
  5
143
100
AcDbEntity
  8
0
 62
     7
100
AcDbText
 10
189.574688
 20
191.125552
 30
0.0
 40
4.0
  1
n x φh
 41
0.7695
  7
FontTableH_0
 72
     5
 11
209.408021
 21
191.125552
 31
0.0
100
AcDbText
  0
TEXT
  5
144
100
AcDbEntity
  8
0
 62
     7
100
AcDbText
 10
312.319568
 20
84.491574
 30
0.0
 40
4.0
  1
L
 41
0.7695
  7
FontTableH_0
 72
     5
 11
315.319568
 21
84.491574
 31
0.0
100
AcDbText
  0
TEXT
  5
145
100
AcDbEntity
  8
0
 62
     7
100
AcDbText
 10
255.903208
 20
134.763039
 30
0.0
 40
4.0
  1
Ａ
 50
90.0
 41
0.7695
  7
FontTableH_0
 72
     5
 11
255.903208
 21
138.763039
 31
0.0
100
AcDbText
  0
TEXT
  5
146
100
AcDbEntity
  8
0
 62
     7
100
AcDbText
 10
227.264578
 20
134.763039
 30
0.0
 40
4.0
  1
Ｂ
 50
90.0
 41
0.7695
  7
FontTableH_0
 72
     5
 11
227.264578
 21
138.763039
 31
0.0
100
AcDbText
  0
TEXT
  5
147
100
AcDbEntity
  8
0
 62
     7
100
AcDbText
 10
239.764578
 20
131.013039
 30
0.0
 40
4.0
  1
ＰＣＤ
 50
90.0
 41
0.7695
  7
FontTableH_0
 72
     5
 11
239.764578
 21
143.013039
 31
0.0
100
AcDbText
  0
TEXT
  5
148
100
AcDbEntity
  8
0
 62
     7
100
AcDbText
 10
180.641705
 20
233.773092
 30
0.0
 40
3.0
  1
４ x １０
 41
0.7695
  7
FontTableH_0
 72
     5
 11
197.516705
 21
233.773092
 31
0.0
100
AcDbText
  0
TEXT
  5
149
100
AcDbEntity
  8
0
 62
     7
100
AcDbText
 10
180.641705
 20
229.556622
 30
0.0
 40
3.0
  1
８ x １０
 41
0.7695
  7
FontTableH_0
 72
     5
 11
197.516705
 21
229.556622
 31
0.0
100
AcDbText
  0
TEXT
  5
14A
100
AcDbEntity
  8
0
 62
     7
100
AcDbText
 10
180.513933
 20
225.340152
 30
0.0
 40
3.0
  1
８ x １０
 41
0.7695
  7
FontTableH_0
 72
     5
 11
197.388933
 21
225.340152
 31
0.0
100
AcDbText
  0
TEXT
  5
14B
100
AcDbEntity
  8
0
 62
     7
100
AcDbText
 10
180.513933
 20
221.123692
 30
0.0
 40
3.0
  1
８ x １０
 41
0.7695
  7
FontTableH_0
 72
     5
 11
197.388933
 21
221.123692
 31
0.0
100
AcDbText
  0
TEXT
  5
14C
100
AcDbEntity
  8
0
 62
     7
100
AcDbText
 10
177.958498
 20
217.290532
 30
0.0
 40
3.0
  1
１２ x １０
 41
0.7695
  7
FontTableH_0
 72
     5
 11
197.994212
 21
217.290532
 31
0.0
100
AcDbText
  0
TEXT
  5
14D
100
AcDbEntity
  8
0
 62
     7
100
AcDbText
 10
178.214041
 20
212.818522
 30
0.0
 40
3.0
  1
１２ x １０
 41
0.7695
  7
FontTableH_0
 72
     5
 11
198.249755
 21
212.818522
 31
0.0
100
AcDbText
  0
TEXT
  5
14E
100
AcDbEntity
  8
0
 62
     7
100
AcDbText
 10
178.214041
 20
208.857602
 30
0.0
 40
3.0
  1
１６ x １０
 41
0.7695
  7
FontTableH_0
 72
     5
 11
198.249755
 21
208.857602
 31
0.0
100
AcDbText
  0
TEXT
  5
14F
100
AcDbEntity
  8
0
 62
     7
100
AcDbText
 10
181.229872
 20
237.933062
 30
0.0
 40
3.0
  1
n x φh
 41
0.7695
  7
FontTableH_0
 72
     5
 11
196.104872
 21
237.933062
 31
0.0
100
AcDbText
  0
ENDSEC
  0
SECTION
  2
OBJECTS
  0
DICTIONARY
  5
19
100
AcDbDictionary
  3
ACAD_GROUP
350
1A
  3
ACAD_MLINESTYLE
350
1B
  3
DWGPROPS
350
150
  0
DICTIONARY
  5
1A
102
{ACAD_REACTORS
330
19
102
}
100
AcDbDictionary
  0
DICTIONARY
  5
1B
102
{ACAD_REACTORS
330
19
102
}
100
AcDbDictionary
  3
STANDARD
350
1C
  0
MLINESTYLE
  5
1C
102
{ACAD_REACTORS
330
1B
102
}
100
AcDbMlineStyle
  2
Standard
 70
     0
  3

 62
     0
 51
90.0
 52
90.0
 71
     2
 49
0.5
 62
   256
  6
ByLayer
 49
-0.5
 62
   256
  6
ByLayer
  0
XRECORD
  5
150
100
AcDbXrecord
  1
DWGPROPS COOKIE
  2

  3

  4

  6

  7

  0
ENDSEC
  0
EOF
