  0
SECTION
  2
HEADER
  9
$ACADVER
  1
AC1014
  9
$ACADMAINTVER
 70
     0
  9
$DWGCODEPAGE
  3
ANSI_932
  9
$INSBASE
 10
0.0
 20
0.0
 30
0.0
  9
$EXTMIN
 10
0.0
 20
0.0
 30
0.0
  9
$EXTMAX
 10
472.288962
 20
287.518529
 30
0.0
  9
$LIMMIN
 10
0.0
 20
0.0
  9
$LIMMAX
 10
472.288962
 20
287.518529
  9
$ORTHOMODE
 70
     0
  9
$REGENMODE
 70
     1
  9
$FILLMODE
 70
     1
  9
$QTEXTMODE
 70
     0
  9
$MIRRTEXT
 70
     1
  9
$DRAGMODE
 70
     2
  9
$LTSCALE
 40
1.0
  9
$OSMODE
 70
     0
  9
$ATTMODE
 70
     1
  9
$TEXTSIZE
 40
0.2
  9
$TRACEWID
 40
0.05
  9
$TEXTSTYLE
  7
Standard
  9
$CLAYER
  8
0
  9
$CELTYPE
  6
Continuous
  9
$CECOLOR
 62
   256
  9
$CELTSCALE
 40
1.0
  9
$DELOBJ
 70
     1
  9
$DISPSILH
 70
     0
  9
$DIMSCALE
 40
1.0
  9
$DIMASZ
 40
0.18
  9
$DIMEXO
 40
0.0625
  9
$DIMDLI
 40
0.38
  9
$DIMRND
 40
0.0
  9
$DIMDLE
 40
0.0
  9
$DIMEXE
 40
0.18
  9
$DIMTP
 40
0.0
  9
$DIMTM
 40
0.0
  9
$DIMTXT
 40
0.18
  9
$DIMCEN
 40
0.09
  9
$DIMTSZ
 40
0.0
  9
$DIMTOL
 70
     0
  9
$DIMLIM
 70
     0
  9
$DIMTIH
 70
     1
  9
$DIMTOH
 70
     1
  9
$DIMSE1
 70
     0
  9
$DIMSE2
 70
     0
  9
$DIMTAD
 70
     0
  9
$DIMZIN
 70
     0
  9
$DIMBLK
  1

  9
$DIMASO
 70
     1
  9
$DIMSHO
 70
     1
  9
$DIMPOST
  1

  9
$DIMAPOST
  1

  9
$DIMALT
 70
     0
  9
$DIMALTD
 70
     2
  9
$DIMALTF
 40
25.4
  9
$DIMLFAC
 40
1.0
  9
$DIMTOFL
 70
     0
  9
$DIMTVP
 40
0.0
  9
$DIMTIX
 70
     0
  9
$DIMSOXD
 70
     0
  9
$DIMSAH
 70
     0
  9
$DIMBLK1
  1

  9
$DIMBLK2
  1

  9
$DIMSTYLE
  2
Standard
  9
$DIMCLRD
 70
     0
  9
$DIMCLRE
 70
     0
  9
$DIMCLRT
 70
     0
  9
$DIMTFAC
 40
1.0
  9
$DIMGAP
 40
0.09
  9
$DIMJUST
 70
     0
  9
$DIMSD1
 70
     0
  9
$DIMSD2
 70
     0
  9
$DIMTOLJ
 70
     1
  9
$DIMTZIN
 70
     0
  9
$DIMALTZ
 70
     0
  9
$DIMALTTZ
 70
     0
  9
$DIMFIT
 70
     3
  9
$DIMUPT
 70
     0
  9
$DIMUNIT
 70
     2
  9
$DIMDEC
 70
     4
  9
$DIMTDEC
 70
     4
  9
$DIMALTU
 70
     2
  9
$DIMALTTD
 70
     2
  9
$DIMTXSTY
  7
Standard
  9
$DIMAUNIT
 70
     0
  9
$LUNITS
 70
     2
  9
$LUPREC
 70
     4
  9
$SKETCHINC
 40
0.1
  9
$FILLETRAD
 40
0.0
  9
$AUNITS
 70
     0
  9
$AUPREC
 70
     0
  9
$MENU
  1
acad
  9
$ELEVATION
 40
0.0
  9
$PELEVATION
 40
0.0
  9
$THICKNESS
 40
0.0
  9
$LIMCHECK
 70
     0
  9
$BLIPMODE
 70
     1
  9
$CHAMFERA
 40
0.0
  9
$CHAMFERB
 40
0.0
  9
$CHAMFERC
 40
0.0
  9
$CHAMFERD
 40
0.0
  9
$SKPOLY
 70
     0
  9
$TDCREATE
 40
0.000000000
  9
$TDUPDATE
 40
0.000000000
  9
$TDINDWG
 40
0.0000000000
  9
$TDUSRTIMER
 40
0.0000000000
  9
$USRTIMER
 70
     1
  9
$ANGBASE
 50
0.0
  9
$ANGDIR
 70
     0
  9
$PDMODE
 70
     0
  9
$PDSIZE
 40
0.0
  9
$PLINEWID
 40
0.0
  9
$COORDS
 70
     0
  9
$SPLFRAME
 70
     0
  9
$SPLINETYPE
 70
     6
  9
$SPLINESEGS
 70
     8
  9
$ATTDIA
 70
     0
  9
$ATTREQ
 70
     1
  9
$HANDLING
 70
     1
  9
$HANDSEED
  5
1E1
  9
$SURFTAB1
 70
     6
  9
$SURFTAB2
 70
     6
  9
$SURFTYPE
 70
     6
  9
$SURFU
 70
     6
  9
$SURFV
 70
     6
  9
$UCSNAME
  2

  9
$UCSORG
 10
0.0
 20
0.0
 30
0.0
  9
$UCSXDIR
 10
1.0
 20
0.0
 30
0.0
  9
$UCSYDIR
 10
0.0
 20
1.0
 30
0.0
  9
$PUCSNAME
  2

  9
$PUCSORG
 10
0.0
 20
0.0
 30
0.0
  9
$PUCSXDIR
 10
1.0
 20
0.0
 30
0.0
  9
$PUCSYDIR
 10
0.0
 20
1.0
 30
0.0
  9
$USERI1
 70
     0
  9
$USERI2
 70
     0
  9
$USERI3
 70
     0
  9
$USERI4
 70
     0
  9
$USERI5
 70
     0
  9
$USERR1
 40
0.0
  9
$USERR2
 40
0.0
  9
$USERR3
 40
0.0
  9
$USERR4
 40
0.0
  9
$USERR5
 40
0.0
  9
$WORLDVIEW
 70
     1
  9
$SHADEDGE
 70
     3
  9
$SHADEDIF
 70
    70
  9
$TILEMODE
 70
     1
  9
$MAXACTVP
 70
    16
  9
$PINSBASE
 10
0.0
 20
0.0
 30
0.0
  9
$PLIMCHECK
 70
     0
  9
$PEXTMIN
 10
1.000000E+20
 20
1.000000E+20
 30
1.000000E+20
  9
$PEXTMAX
 10
-1.000000E+20
 20
-1.000000E+20
 30
-1.000000E+20
  9
$PLIMMIN
 10
0.0
 20
0.0
  9
$PLIMMAX
 10
12.0
 20
9.0
  9
$UNITMODE
 70
     0
  9
$VISRETAIN
 70
     0
  9
$PLINEGEN
 70
     1
  9
$PSLTSCALE
 70
     0
  9
$TREEDEPTH
 70
  3020
  9
$PICKSTYLE
 70
     1
  9
$CMLSTYLE
  2
Standard
  9
$CMLJUST
 70
     0
  9
$CMLSCALE
 40
1.0
  9
$PROXYGRAPHICS
 70
     0
  9
$MEASUREMENT
 70
     0
  0
ENDSEC
  0
SECTION
  2
CLASSES
  0
CLASS
  1
LWPOLYLINE
  2
AcDbPolyline
  3
"AutoCAD"
 90
        0
280
     0
281
     1
  0
CLASS
  1
IMAGE
  2
AcDbRasterImage
  3
ISM
 90
      127
280
     0
281
     1
  0
CLASS
  1
OLE2FRAME
  2
AcDbOle2Frame
  3
""
 90
        0
280
     0
281
     1
  0
CLASS
  1
HATCH
  2
AcDbHatch
  3
"ACAD_SEDONA"
 90
        0
280
     0
281
     1
  0
CLASS
  1
DICTIONARYVAR
  2
AcDbDictionaryVar
  3
"AutoCAD"
 90
        0
280
     0
281
     0
  0
CLASS
  1
RASTERVARIABLES
  2
AcDbRasterVariables
  3
ISM
 90
        0
280
     0
281
     0
  0
CLASS
  1
IMAGEDEF
  2
AcDbRasterImageDef
  3
ISM
 90
        0
280
     0
281
     0
  0
CLASS
  1
IMAGEDEF_REACTOR
  2
AcDbRasterImageDefReactor
  3
ISM
 90
        1
280
     0
281
     0
  0
CLASS
  1
IDBUFFER
  2
AcDbIdBuffer
  3
"Acad"
 90
        0
280
     0
281
     0
  0
CLASS
  1
SPATIAL_FILTER
  2
AcDbSpatialFilter
  3
"Acad"
 90
        0
280
     0
281
     0
  0
CLASS
  1
XRECORD
  2
AcDbXrecord
  3
"<Built In>"
 90
        0
280
     0
281
     0
  0
CLASS
  1
SORTENTSTABLE
  2
AcDbSortentsTable
  3
"AutoCAD"
 90
        0
280
     0
281
     0
  0
CLASS
  1
LAYER_INDEX
  2
AcDbLayerIndex
  3
"Acad"
 90
        0
280
     0
281
     0
  0
CLASS
  1
SPATIAL_INDEX
  2
AcDbSpatialIndex
  3
"Acad"
 90
        0
280
     0
281
     0
  0
CLASS
  1
OBJECT_PTR
  2
CAseDLPNTableRecord
  3
"ASE-LPNTableRecord"
 90
        1
280
     0
281
     0
  0
CLASS
  1
LAYOUT
  2
AcDbLayout
  3
"AutoCAD 2000"
 90
        0
280
     0
281
     0
  0
CLASS
  1
PLOTSETTINGS
  2
AcDbPlotSettings
  3
"AutoCAD 2000"
 90
        0
280
     0
281
     0
  0
CLASS
  1
ACDBDICTIONARYWDFLT
  2
AcDbDictionaryWithDefault
  3
"AutoCAD 2000"
 90
        0
280
     0
281
     0
  0
CLASS
  1
ACDBPLACEHOLDER
  2
AcDbPlaceHolder
  3
"AutoCAD 2000"
 90
        0
280
     0
281
     0
  0
CLASS
  1
VBA_PROJECT
  2
AcDbVbaProject
  3
"acadvba"
 90
        0
280
     0
281
     0
  0
CLASS
  1
WIPEOUT
  2
AcDbWipeout
  3
WipeOut|AutoCAD Express Tool|expresstools@autodesk.com
 90
      127
280
     0
281
     1
  0
CLASS
  1
WIPEOUTVARIABLES
  2
AcDbWipeoutVariables
  3
WipeOut|AutoCAD Express Tool|expresstools@autodesk.com
 90
        0
280
     0
281
     0
  0
CLASS
  1
RTEXT
  2
RText
  3
RText|AutoCAD Express Tool|expresstools@autodesk.com
 90
        0
280
     0
281
     1
  0
CLASS
  1
ARCALIGNEDTEXT
  2
AcDbArcAlignedText
  3
ATEXT|AutoCAD Express Tool|expresstools@autodesk.com
 90
        0
280
     0
281
     1
  0
ENDSEC
  0
SECTION
  2
TABLES
  0
TABLE
  2
VPORT
  5
7
100
AcDbSymbolTable
 70
     1
  0
VPORT
  5
15
100
AcDbSymbolTableRecord
100
AcDbViewportTableRecord
  2
*ACTIVE
 70
     0
 10
0.0
 20
0.0
 11
1.0
 21
1.0
 12
236.144481
 22
143.759265
 13
0.0
 23
0.0
 14
10.0
 24
10.0
 15
10.0
 25
10.0
 16
0.0
 26
0.0
 36
1.0
 17
0.0
 27
0.0
 37
0.0
 40
287.518529
 41
1.642638
 42
50.0
 43
0.0
 44
0.0
 50
0.0
 51
0.0
 71
     0
 72
   100
 73
     1
 74
     1
 75
     0
 76
     0
 77
     0
 78
     0
  0
ENDTAB
  0
TABLE
  2
LTYPE
  5
4
100
AcDbSymbolTable
 70
    24
  0
LTYPE
  5
11
100
AcDbSymbolTableRecord
100
AcDbLinetypeTableRecord
  2
ByBlock
 70
    64
  3

 72
    65
 73
     0
 40
0.0
  0
LTYPE
  5
12
100
AcDbSymbolTableRecord
100
AcDbLinetypeTableRecord
  2
ByLayer
 70
    64
  3

 72
    65
 73
     0
 40
0.0
  0
LTYPE
  5
13
100
AcDbSymbolTableRecord
100
AcDbLinetypeTableRecord
  2
Continuous
 70
    64
  3
Solid line
 72
    65
 73
     0
 40
0.0
  0
LTYPE
  5
1D
100
AcDbSymbolTableRecord
100
AcDbLinetypeTableRecord
  2
DOT
 70
    64
  3
Dot . . . . . . . . . . . . . . . . . . . . . .
 72
    65
 73
     2
 40
6.35
 49
0.35
 74
     0
 49
-6.0
 74
     0
  0
LTYPE
  5
1E
100
AcDbSymbolTableRecord
100
AcDbLinetypeTableRecord
  2
DASHED
 70
    64
  3
Dashed __ __ __ __ __ __ __ __ __ __ __ __ __ _
 72
    65
 73
     2
 40
12.7
 49
6.35
 74
     0
 49
-6.35
 74
     0
  0
LTYPE
  5
1F
100
AcDbSymbolTableRecord
100
AcDbLinetypeTableRecord
  2
DASHDOT
 70
    64
  3
Dash dot __ . __ . __ . __ . __ . __ . __ . __
 72
    65
 73
     4
 40
25.4
 49
12.7
 74
     0
 49
-6.0
 74
     0
 49
0.7
 74
     0
 49
-6.0
 74
     0
  0
LTYPE
  5
20
100
AcDbSymbolTableRecord
100
AcDbLinetypeTableRecord
  2
DIVIDE
 70
    64
  3
Divide ____ . . ____ . . ____ . . ____ . . ____
 72
    65
 73
     6
 40
31.75
 49
12.7
 74
     0
 49
-6.0
 74
     0
 49
0.875
 74
     0
 49
-6.0
 74
     0
 49
0.875
 74
     0
 49
-6.0
 74
     0
  0
LTYPE
  5
21
100
AcDbSymbolTableRecord
100
AcDbLinetypeTableRecord
  2
HIDDEN
 70
    64
  3
Hidden __ __ __ __ __ __ __ __ __ __ __ __ __ _
 72
    65
 73
     2
 40
9.525
 49
6.35
 74
     0
 49
-3.175
 74
     0
  0
LTYPE
  5
22
100
AcDbSymbolTableRecord
100
AcDbLinetypeTableRecord
  2
CENTER
 70
    64
  3
Center ____ _ ____ _ ____ _ ____ _ ____ _ ____
 72
    65
 73
     4
 40
50.8
 49
31.75
 74
     0
 49
-6.35
 74
     0
 49
6.35
 74
     0
 49
-6.35
 74
     0
  0
LTYPE
  5
23
100
AcDbSymbolTableRecord
100
AcDbLinetypeTableRecord
  2
PHANTOM
 70
    64
  3
Phantom ______  __  __  ______  __  __  ______
 72
    65
 73
     6
 40
63.5
 49
31.75
 74
     0
 49
-6.35
 74
     0
 49
6.35
 74
     0
 49
-6.35
 74
     0
 49
6.35
 74
     0
 49
-6.35
 74
     0
  0
LTYPE
  5
24
100
AcDbSymbolTableRecord
100
AcDbLinetypeTableRecord
  2
ACAD_ISO02W100
 70
    64
  3
ISO dash __ __ __ __ __ __ __ __ __ __ __ __ __
 72
    65
 73
     2
 40
15.0
 49
12.0
 74
     0
 49
-3.0
 74
     0
  0
LTYPE
  5
25
100
AcDbSymbolTableRecord
100
AcDbLinetypeTableRecord
  2
ACAD_ISO03W100
 70
    64
  3
ISO dash space __ __ __ __ __ __ __ __ __ __ __ __ __ __
 72
    65
 73
     2
 40
30.0
 49
12.0
 74
     0
 49
-18.0
 74
     0
  0
LTYPE
  5
26
100
AcDbSymbolTableRecord
100
AcDbLinetypeTableRecord
  2
ACAD_ISO04W100
 70
    64
  3
ISO long-dash dot ____ . ____ . ____ . ____ . _
 72
    65
 73
     4
 40
30.0
 49
24.0
 74
     0
 49
-3.0
 74
     0
 49
0.0
 74
     0
 49
-3.0
 74
     0
  0
LTYPE
  5
27
100
AcDbSymbolTableRecord
100
AcDbLinetypeTableRecord
  2
ACAD_ISO05W100
 70
    64
  3
ISO long-dash double-dot ____ .. ____ .. ____ .
 72
    65
 73
     6
 40
33.0
 49
24.0
 74
     0
 49
-3.0
 74
     0
 49
0.0
 74
     0
 49
-3.0
 74
     0
 49
0.0
 74
     0
 49
-3.0
 74
     0
  0
LTYPE
  5
28
100
AcDbSymbolTableRecord
100
AcDbLinetypeTableRecord
  2
ACAD_ISO06W100
 70
    64
  3
ISO long-dash triple-dot ____ ... ____ ... ____
 72
    65
 73
     8
 40
36.0
 49
24.0
 74
     0
 49
-3.0
 74
     0
 49
0.0
 74
     0
 49
-3.0
 74
     0
 49
0.0
 74
     0
 49
-3.0
 74
     0
 49
0.0
 74
     0
 49
-3.0
 74
     0
  0
LTYPE
  5
29
100
AcDbSymbolTableRecord
100
AcDbLinetypeTableRecord
  2
ACAD_ISO07W100
 70
    64
  3
ISO dot . . . . . . . . . . . . . . . . . . . .
 72
    65
 73
     2
 40
3.0
 49
0.0
 74
     0
 49
-3.0
 74
     0
  0
LTYPE
  5
2A
100
AcDbSymbolTableRecord
100
AcDbLinetypeTableRecord
  2
ACAD_ISO08W100
 70
    64
  3
ISO long-dash short-dash ____ __ ____ __ ____ _
 72
    65
 73
     4
 40
36.0
 49
24.0
 74
     0
 49
-3.0
 74
     0
 49
6.0
 74
     0
 49
-3.0
 74
     0
  0
LTYPE
  5
2B
100
AcDbSymbolTableRecord
100
AcDbLinetypeTableRecord
  2
ACAD_ISO09W100
 70
    64
  3
ISO long-dash double-short-dash ____ __ __ ____
 72
    65
 73
     6
 40
45.0
 49
24.0
 74
     0
 49
-3.0
 74
     0
 49
6.0
 74
     0
 49
-3.0
 74
     0
 49
6.0
 74
     0
 49
-3.0
 74
     0
  0
LTYPE
  5
2C
100
AcDbSymbolTableRecord
100
AcDbLinetypeTableRecord
  2
ACAD_ISO10W100
 70
    64
  3
ISO dash dot __ . __ . __ . __ . __ . __ . __ .
 72
    65
 73
     4
 40
18.0
 49
12.0
 74
     0
 49
-3.0
 74
     0
 49
0.0
 74
     0
 49
-3.0
 74
     0
  0
LTYPE
  5
2D
100
AcDbSymbolTableRecord
100
AcDbLinetypeTableRecord
  2
ACAD_ISO11W100
 70
    64
  3
ISO double-dash dot __ __ . __ __ . __ __ . __ 
 72
    65
 73
     6
 40
33.0
 49
12.0
 74
     0
 49
-3.0
 74
     0
 49
12.0
 74
     0
 49
-3.0
 74
     0
 49
0.0
 74
     0
 49
-3.0
 74
     0
  0
LTYPE
  5
2E
100
AcDbSymbolTableRecord
100
AcDbLinetypeTableRecord
  2
ACAD_ISO12W100
 70
    64
  3
ISO dash double-dot __ . . __ . . __ . . __ . .
 72
    65
 73
     6
 40
21.0
 49
12.0
 74
     0
 49
-3.0
 74
     0
 49
0.0
 74
     0
 49
-3.0
 74
     0
 49
0.0
 74
     0
 49
-3.0
 74
     0
  0
LTYPE
  5
2F
100
AcDbSymbolTableRecord
100
AcDbLinetypeTableRecord
  2
ACAD_ISO13W100
 70
    64
  3
ISO double-dash double-dot __ __ . . __ __ . . 
 72
    65
 73
     8
 40
36.0
 49
12.0
 74
     0
 49
-3.0
 74
     0
 49
12.0
 74
     0
 49
-3.0
 74
     0
 49
0.0
 74
     0
 49
-3.0
 74
     0
 49
0.0
 74
     0
 49
-3.0
 74
     0
  0
LTYPE
  5
30
100
AcDbSymbolTableRecord
100
AcDbLinetypeTableRecord
  2
ACAD_ISO14W100
 70
    64
  3
ISO dash triple-dot __ . . . __ . . . __ . . . 
 72
    65
 73
     8
 40
24.0
 49
12.0
 74
     0
 49
-3.0
 74
     0
 49
0.0
 74
     0
 49
-3.0
 74
     0
 49
0.0
 74
     0
 49
-3.0
 74
     0
 49
0.0
 74
     0
 49
-3.0
 74
     0
  0
LTYPE
  5
31
100
AcDbSymbolTableRecord
100
AcDbLinetypeTableRecord
  2
ACAD_ISO15W100
 70
    64
  3
ISO double-dash double-dot __ __ . . __ __ . . 
 72
    65
 73
    10
 40
39.0
 49
12.0
 74
     0
 49
-3.0
 74
     0
 49
12.0
 74
     0
 49
-3.0
 74
     0
 49
0.0
 74
     0
 49
-3.0
 74
     0
 49
0.0
 74
     0
 49
-3.0
 74
     0
 49
0.0
 74
     0
 49
-3.0
 74
     0
  0
ENDTAB
  0
TABLE
  2
LAYER
  5
2
100
AcDbSymbolTable
 70
     1
  0
LAYER
  5
14
100
AcDbSymbolTableRecord
100
AcDbLayerTableRecord
  2
0
 70
     0
 62
     7
  6
Continuous
  0
ENDTAB
  0
TABLE
  2
STYLE
  5
3
100
AcDbSymbolTable
 70
     4
  0
STYLE
  5
17
100
AcDbSymbolTableRecord
100
AcDbTextStyleTableRecord
  2
Standard
 70
     0
 40
0.0
 41
1.0
 50
0.0
 71
     0
 42
0.0
  3
txt.shx
  4
bigfont.shx
  0
STYLE
  5
32
100
AcDbSymbolTableRecord
100
AcDbTextStyleTableRecord
  2
STANDARD_T
 70
     4
 40
0.0
 41
1.0
 50
0.0
 71
     0
 42
0.0
  3
txt.shx
  4
bigfont.shx
  0
STYLE
  5
33
100
AcDbSymbolTableRecord
100
AcDbTextStyleTableRecord
  2
FontTableH_0
 70
     0
 40
0.0
 41
1.0
 50
0.0
 71
     0
 42
0.0
  3
MS Gothic.ttf
  4

1001
ACAD
1000
MS Gothic
1071
    32817
  0
STYLE
  5
34
100
AcDbSymbolTableRecord
100
AcDbTextStyleTableRecord
  2
FontTableV_0
 70
     0
 40
0.0
 41
1.0
 50
0.0
 71
     0
 42
0.0
  3
@MS Gothic.ttf
  4

1001
ACAD
1000
@MS Gothic
1071
    32817
  0
ENDTAB
  0
TABLE
  2
VIEW
  5
5
100
AcDbSymbolTable
 70
     0
  0
ENDTAB
  0
TABLE
  2
UCS
  5
6
100
AcDbSymbolTable
 70
     0
  0
ENDTAB
  0
TABLE
  2
APPID
  5
8
100
AcDbSymbolTable
 70
     1
  0
APPID
  5
16
100
AcDbSymbolTableRecord
100
AcDbRegAppTableRecord
  2
ACAD
 70
     0
  0
ENDTAB
  0
TABLE
  2
DIMSTYLE
  5
9
100
AcDbSymbolTable
 70
     1
  0
DIMSTYLE
105
18
100
AcDbSymbolTableRecord
100
AcDbDimStyleTableRecord
  2
Standard
 70
     0
  3

  4

  5

  6

  7

 40
1.0
 41
0.18
 42
0.0625
 43
0.38
 44
0.18
 45
0.0
 46
0.0
 47
0.0
 48
0.0
 71
     0
 72
     0
 73
     1
 74
     1
 75
     0
 76
     0
 77
     0
 78
     0
140
0.18
141
0.09
142
0.0
143
25.4
144
1.0
145
0.0
146
1.0
147
0.09
170
     0
171
     2
172
     0
173
     0
174
     0
175
     0
176
     0
177
     0
178
     0
270
     2
271
     4
272
     4
273
     2
274
     2
275
     0
280
     0
281
     0
282
     0
283
     1
284
     0
285
     0
286
     0
287
     0
288
     0
340
17
  0
ENDTAB
  0
TABLE
  2
BLOCK_RECORD
  5
1
100
AcDbSymbolTable
 70
     0
  0
BLOCK_RECORD
  5
A
100
AcDbSymbolTableRecord
100
AcDbBlockTableRecord
  2
*MODEL_SPACE
  0
BLOCK_RECORD
  5
B
100
AcDbSymbolTableRecord
100
AcDbBlockTableRecord
  2
*PAPER_SPACE
  0
ENDTAB
  0
ENDSEC
  0
SECTION
  2
BLOCKS
  0
BLOCK
  5
D
100
AcDbEntity
  8
0
100
AcDbBlockBegin
  2
*MODEL_SPACE
 70
     0
 10
0.0
 20
0.0
 30
0.0
  3
*MODEL_SPACE
  1

  0
ENDBLK
  5
E
100
AcDbEntity
  8
0
100
AcDbBlockEnd
  0
BLOCK
  5
F
100
AcDbEntity
 67
     1
  8
0
100
AcDbBlockBegin
  2
*PAPER_SPACE
 70
     0
 10
0.0
 20
0.0
 30
0.0
  3
*PAPER_SPACE
  1

  0
ENDBLK
  5
10
100
AcDbEntity
 67
     1
  8
0
100
AcDbBlockEnd
  0
ENDSEC
  0
SECTION
  2
ENTITIES
  0
LINE
  5
35
100
AcDbEntity
  8
0
  6
Continuous
 62
     4
100
AcDbLine
 10
331.534678
 20
68.9507
 30
0.0
 11
331.534678
 21
48.910652
 31
0.0
  0
LINE
  5
36
100
AcDbEntity
  8
0
  6
Continuous
 62
     4
100
AcDbLine
 10
331.534678
 20
53.920664
 30
0.0
 11
374.477638
 21
53.920664
 31
0.0
  0
LINE
  5
37
100
AcDbEntity
  8
0
  6
Continuous
 62
     2
100
AcDbLine
 10
374.477638
 20
238.607877
 30
0.0
 11
374.477638
 21
48.910652
 31
0.0
  0
LINE
  5
38
100
AcDbEntity
  8
0
  6
Continuous
 62
     2
100
AcDbLine
 10
374.477638
 20
48.910652
 30
0.0
 11
97.811323
 21
48.910652
 31
0.0
  0
LINE
  5
39
100
AcDbEntity
  8
0
  6
Continuous
 62
     2
100
AcDbLine
 10
97.811323
 20
238.607877
 30
0.0
 11
97.811323
 21
48.910652
 31
0.0
  0
LINE
  5
3A
100
AcDbEntity
  8
0
  6
Continuous
 62
     2
100
AcDbLine
 10
374.477638
 20
238.607877
 30
0.0
 11
97.811323
 21
238.607877
 31
0.0
  0
LINE
  5
3B
100
AcDbEntity
  8
0
  6
Continuous
 62
     2
100
AcDbLine
 10
331.581768
 20
68.9507
 30
0.0
 11
374.477638
 21
68.9507
 31
0.0
  0
LINE
  5
3C
100
AcDbEntity
  8
0
  6
Continuous
 62
     4
100
AcDbLine
 10
331.581768
 20
58.930676
 30
0.0
 11
374.477638
 21
58.930676
 31
0.0
  0
LINE
  5
3D
100
AcDbEntity
  8
0
  6
Continuous
 62
     2
100
AcDbLine
 10
148.655845
 20
71.387213
 30
0.0
 11
149.255845
 21
71.387213
 31
0.0
  0
LINE
  5
3E
100
AcDbEntity
  8
0
  6
Continuous
 62
     4
100
AcDbLine
 10
145.051084
 20
73.887213
 30
0.0
 11
147.483472
 21
73.887213
 31
0.0
  0
LINE
  5
3F
100
AcDbEntity
  8
0
  6
Continuous
 62
     4
100
AcDbLine
 10
150.252891
 20
73.887213
 30
0.0
 11
151.655845
 21
73.887213
 31
0.0
  0
LINE
  5
40
100
AcDbEntity
  8
0
  6
Continuous
 62
     4
100
AcDbLine
 10
138.175214
 20
73.887213
 30
0.0
 11
143.051084
 21
73.887213
 31
0.0
  0
LINE
  5
41
100
AcDbEntity
  8
0
  6
Continuous
 62
     2
100
AcDbLine
 10
149.255845
 20
76.737213
 30
0.0
 11
154.555845
 21
76.737213
 31
0.0
  0
LINE
  5
42
100
AcDbEntity
  8
0
  6
Continuous
 62
     4
100
AcDbLine
 10
139.175214
 20
73.887213
 30
0.0
 11
138.65427
 21
76.841636
 31
0.0
  0
LINE
  5
43
100
AcDbEntity
  8
0
  6
Continuous
 62
     4
100
AcDbLine
 10
139.175214
 20
73.887213
 30
0.0
 11
139.696159
 21
76.841636
 31
0.0
  0
LINE
  5
44
100
AcDbEntity
  8
0
  6
Continuous
 62
     4
100
AcDbLine
 10
139.175214
 20
132.887213
 30
0.0
 11
139.696159
 21
129.932789
 31
0.0
  0
LINE
  5
45
100
AcDbEntity
  8
0
  6
Continuous
 62
     4
100
AcDbLine
 10
139.175214
 20
132.887213
 30
0.0
 11
138.65427
 21
129.932789
 31
0.0
  0
LINE
  5
46
100
AcDbEntity
  8
0
  6
Continuous
 62
     4
100
AcDbLine
 10
139.175214
 20
132.887213
 30
0.0
 11
139.175214
 21
73.887213
 31
0.0
  0
LINE
  5
47
100
AcDbEntity
  8
0
  6
Continuous
 62
     2
100
AcDbLine
 10
154.450697
 20
215.086247
 30
0.0
 11
194.450688
 21
204.986247
 31
0.0
  0
LINE
  5
48
100
AcDbEntity
  8
0
  6
Continuous
 62
     2
100
AcDbLine
 10
154.450697
 20
163.086247
 30
0.0
 11
194.450688
 21
173.186247
 31
0.0
  0
LINE
  5
49
100
AcDbEntity
  8
0
  6
Continuous
 62
     4
100
AcDbLine
 10
170.506954
 20
210.516347
 30
0.0
 11
178.188148
 21
208.576847
 31
0.0
  0
LINE
  5
4A
100
AcDbEntity
  8
0
  6
Continuous
 62
     2
100
AcDbLine
 10
194.450688
 20
205.486247
 30
0.0
 11
194.450688
 21
172.686247
 31
0.0
  0
LINE
  5
4B
100
AcDbEntity
  8
0
  6
Continuous
 62
     2
100
AcDbLine
 10
148.550697
 20
221.086247
 30
0.0
 11
148.550697
 21
157.086247
 31
0.0
  0
LINE
  5
4C
100
AcDbEntity
  8
0
  6
Continuous
 62
     2
100
AcDbLine
 10
198.450688
 20
168.036247
 30
0.0
 11
198.950688
 21
168.036247
 31
0.0
  0
LINE
  5
4D
100
AcDbEntity
  8
0
  6
Continuous
 62
     2
100
AcDbLine
 10
198.450688
 20
210.136247
 30
0.0
 11
198.950688
 21
210.136247
 31
0.0
  0
LINE
  5
4E
100
AcDbEntity
  8
0
  6
Continuous
 62
     2
100
AcDbLine
 10
198.950688
 20
210.136247
 30
0.0
 11
198.950688
 21
168.036247
 31
0.0
  0
LINE
  5
4F
100
AcDbEntity
  8
0
  6
Continuous
 62
     2
100
AcDbLine
 10
198.450688
 20
210.136247
 30
0.0
 11
198.450688
 21
168.036247
 31
0.0
  0
LINE
  5
50
100
AcDbEntity
  8
0
  6
Continuous
 62
     2
100
AcDbLine
 10
194.450688
 20
205.486247
 30
0.0
 11
198.450688
 21
205.486247
 31
0.0
  0
LINE
  5
51
100
AcDbEntity
  8
0
  6
Continuous
 62
     2
100
AcDbLine
 10
194.450688
 20
172.686247
 30
0.0
 11
198.450688
 21
172.686247
 31
0.0
  0
LINE
  5
52
100
AcDbEntity
  8
0
  6
Continuous
 62
     4
100
AcDbLine
 10
204.708788
 20
169.986247
 30
0.0
 11
207.773958
 21
169.986247
 31
0.0
  0
LINE
  5
53
100
AcDbEntity
  8
0
  6
Continuous
 62
     4
100
AcDbLine
 10
204.708788
 20
208.186247
 30
0.0
 11
207.773958
 21
208.186247
 31
0.0
  0
LINE
  5
54
100
AcDbEntity
  8
0
  6
Continuous
 62
     4
100
AcDbLine
 10
138.501967
 20
159.586247
 30
0.0
 11
143.271885
 21
159.586247
 31
0.0
  0
LINE
  5
55
100
AcDbEntity
  8
0
  6
Continuous
 62
     4
100
AcDbLine
 10
138.501967
 20
218.586247
 30
0.0
 11
143.271885
 21
218.586247
 31
0.0
  0
LINE
  5
56
100
AcDbEntity
  8
0
  6
DASHDOT
 62
     4
100
AcDbLine
 10
143.436002
 20
189.086247
 30
0.0
 11
201.004038
 21
189.086247
 31
0.0
  0
LINE
  5
57
100
AcDbEntity
  8
0
  6
Continuous
 62
     4
100
AcDbLine
 10
199.823828
 20
208.186247
 30
0.0
 11
202.708788
 21
208.186247
 31
0.0
  0
LINE
  5
58
100
AcDbEntity
  8
0
  6
Continuous
 62
     4
100
AcDbLine
 10
199.823828
 20
169.986247
 30
0.0
 11
202.708788
 21
169.986247
 31
0.0
  0
LINE
  5
59
100
AcDbEntity
  8
0
  6
Continuous
 62
     4
100
AcDbLine
 10
145.271885
 20
218.586247
 30
0.0
 11
147.501171
 21
218.586247
 31
0.0
  0
LINE
  5
5A
100
AcDbEntity
  8
0
  6
Continuous
 62
     4
100
AcDbLine
 10
145.271885
 20
159.586247
 30
0.0
 11
147.501171
 21
159.586247
 31
0.0
  0
LINE
  5
5B
100
AcDbEntity
  8
0
  6
Continuous
 62
     4
100
AcDbLine
 10
198.950688
 20
212.136247
 30
0.0
 11
198.950688
 21
227.498547
 31
0.0
  0
LINE
  5
5C
100
AcDbEntity
  8
0
  6
Continuous
 62
     4
100
AcDbLine
 10
148.550697
 20
223.086247
 30
0.0
 11
148.550697
 21
227.498547
 31
0.0
  0
LINE
  5
5D
100
AcDbEntity
  8
0
  6
Continuous
 62
     4
100
AcDbLine
 10
194.928578
 20
208.186247
 30
0.0
 11
197.463408
 21
208.186247
 31
0.0
  0
LINE
  5
5E
100
AcDbEntity
  8
0
  6
Continuous
 62
     4
100
AcDbLine
 10
194.928578
 20
169.986247
 30
0.0
 11
197.463408
 21
169.986247
 31
0.0
  0
LINE
  5
5F
100
AcDbEntity
  8
0
  6
Continuous
 62
     4
100
AcDbLine
 10
150.38613
 20
218.586247
 30
0.0
 11
152.10164
 21
218.586247
 31
0.0
  0
LINE
  5
60
100
AcDbEntity
  8
0
  6
Continuous
 62
     4
100
AcDbLine
 10
150.38613
 20
159.586247
 30
0.0
 11
152.10164
 21
159.586247
 31
0.0
  0
LINE
  5
61
100
AcDbEntity
  8
0
  6
Continuous
 62
     4
100
AcDbLine
 10
194.450688
 20
207.486247
 30
0.0
 11
194.450688
 21
221.123107
 31
0.0
  0
LINE
  5
62
100
AcDbEntity
  8
0
  6
Continuous
 62
     4
100
AcDbLine
 10
154.450697
 20
217.586247
 30
0.0
 11
154.450697
 21
221.123107
 31
0.0
  0
LINE
  5
63
100
AcDbEntity
  8
0
  6
Continuous
 62
     2
100
AcDbLine
 10
154.555845
 20
129.387213
 30
0.0
 11
194.555838
 21
109.187213
 31
0.0
  0
LINE
  5
64
100
AcDbEntity
  8
0
  6
DASHDOT
 62
     4
100
AcDbLine
 10
173.105729
 20
119.459382
 30
0.0
 11
181.874484
 21
115.03116
 31
0.0
  0
LINE
  5
65
100
AcDbEntity
  8
0
  6
Continuous
 62
     4
100
AcDbLine
 10
173.789033
 20
103.387213
 30
0.0
 11
173.789033
 21
93.287213
 31
0.0
  0
LINE
  5
66
100
AcDbEntity
  8
0
  6
Continuous
 62
     2
100
AcDbLine
 10
154.555845
 20
77.387213
 30
0.0
 11
194.555838
 21
77.387213
 31
0.0
  0
LINE
  5
67
100
AcDbEntity
  8
0
  6
Continuous
 62
     2
100
AcDbLine
 10
149.150697
 20
221.086247
 30
0.0
 11
149.150697
 21
157.086247
 31
0.0
  0
LINE
  5
68
100
AcDbEntity
  8
0
  6
Continuous
 62
     2
100
AcDbLine
 10
148.550697
 20
221.086247
 30
0.0
 11
149.150697
 21
221.086247
 31
0.0
  0
LINE
  5
69
100
AcDbEntity
  8
0
  6
Continuous
 62
     2
100
AcDbLine
 10
148.550697
 20
157.086247
 30
0.0
 11
149.150697
 21
157.086247
 31
0.0
  0
LINE
  5
6A
100
AcDbEntity
  8
0
  6
Continuous
 62
     2
100
AcDbLine
 10
149.150697
 20
215.736247
 30
0.0
 11
154.450697
 21
215.736247
 31
0.0
  0
LINE
  5
6B
100
AcDbEntity
  8
0
  6
Continuous
 62
     2
100
AcDbLine
 10
154.450697
 20
215.736247
 30
0.0
 11
154.450697
 21
162.436247
 31
0.0
  0
LINE
  5
6C
100
AcDbEntity
  8
0
  6
Continuous
 62
     2
100
AcDbLine
 10
149.150697
 20
162.436247
 30
0.0
 11
154.450697
 21
162.436247
 31
0.0
  0
LINE
  5
6D
100
AcDbEntity
  8
0
  6
Continuous
 62
     2
100
AcDbLine
 10
154.555845
 20
130.037213
 30
0.0
 11
154.555845
 21
76.737213
 31
0.0
  0
LINE
  5
6E
100
AcDbEntity
  8
0
  6
Continuous
 62
     2
100
AcDbLine
 10
194.555838
 20
109.737213
 30
0.0
 11
194.555838
 21
76.837213
 31
0.0
  0
LINE
  5
6F
100
AcDbEntity
  8
0
  6
DASHDOT
 62
     4
100
AcDbLine
 10
170.251631
 20
93.287213
 30
0.0
 11
200.011048
 21
93.287213
 31
0.0
  0
LINE
  5
70
100
AcDbEntity
  8
0
  6
DASHDOT
 62
     4
100
AcDbLine
 10
147.951084
 20
103.387213
 30
0.0
 11
177.179044
 21
103.387213
 31
0.0
  0
LINE
  5
71
100
AcDbEntity
  8
0
  6
Continuous
 62
     4
100
AcDbLine
 10
199.055838
 20
109.737213
 30
0.0
 11
199.055838
 21
76.837213
 31
0.0
  0
LINE
  5
72
100
AcDbEntity
  8
0
  6
Continuous
 62
     2
100
AcDbLine
 10
198.555838
 20
72.237213
 30
0.0
 11
199.055838
 21
72.237213
 31
0.0
  0
LINE
  5
73
100
AcDbEntity
  8
0
  6
Continuous
 62
     2
100
AcDbLine
 10
198.555838
 20
114.337213
 30
0.0
 11
199.055838
 21
114.337213
 31
0.0
  0
LINE
  5
74
100
AcDbEntity
  8
0
  6
Continuous
 62
     2
100
AcDbLine
 10
199.055838
 20
114.337213
 30
0.0
 11
199.055838
 21
72.237213
 31
0.0
  0
LINE
  5
75
100
AcDbEntity
  8
0
  6
Continuous
 62
     2
100
AcDbLine
 10
198.555838
 20
114.337213
 30
0.0
 11
198.555838
 21
72.237213
 31
0.0
  0
LINE
  5
76
100
AcDbEntity
  8
0
  6
Continuous
 62
     4
100
AcDbLine
 10
196.055838
 20
112.387213
 30
0.0
 11
197.704768
 21
112.387213
 31
0.0
  0
LINE
  5
77
100
AcDbEntity
  8
0
  6
Continuous
 62
     4
100
AcDbLine
 10
199.844778
 20
112.387213
 30
0.0
 11
201.511048
 21
112.387213
 31
0.0
  0
LINE
  5
78
100
AcDbEntity
  8
0
  6
Continuous
 62
     4
100
AcDbLine
 10
196.055838
 20
74.187213
 30
0.0
 11
197.704768
 21
74.187213
 31
0.0
  0
LINE
  5
79
100
AcDbEntity
  8
0
  6
Continuous
 62
     4
100
AcDbLine
 10
199.844778
 20
74.187213
 30
0.0
 11
201.511048
 21
74.187213
 31
0.0
  0
LINE
  5
7A
100
AcDbEntity
  8
0
  6
Continuous
 62
     4
100
AcDbLine
 10
203.511048
 20
74.187213
 30
0.0
 11
206.005968
 21
74.187213
 31
0.0
  0
LINE
  5
7B
100
AcDbEntity
  8
0
  6
Continuous
 62
     4
100
AcDbLine
 10
203.511048
 20
112.387213
 30
0.0
 11
206.005968
 21
112.387213
 31
0.0
  0
LINE
  5
7C
100
AcDbEntity
  8
0
  6
Continuous
 62
     2
100
AcDbLine
 10
194.555838
 20
109.737213
 30
0.0
 11
198.555838
 21
109.737213
 31
0.0
  0
LINE
  5
7D
100
AcDbEntity
  8
0
  6
Continuous
 62
     2
100
AcDbLine
 10
194.555838
 20
76.837213
 30
0.0
 11
198.555838
 21
76.837213
 31
0.0
  0
LINE
  5
7E
100
AcDbEntity
  8
0
  6
Continuous
 62
     2
100
AcDbLine
 10
148.655845
 20
135.387213
 30
0.0
 11
149.255845
 21
135.387213
 31
0.0
  0
LINE
  5
7F
100
AcDbEntity
  8
0
  6
Continuous
 62
     2
100
AcDbLine
 10
149.255845
 20
135.387213
 30
0.0
 11
149.255845
 21
71.387213
 31
0.0
  0
LINE
  5
80
100
AcDbEntity
  8
0
  6
Continuous
 62
     2
100
AcDbLine
 10
148.655845
 20
135.387213
 30
0.0
 11
148.655845
 21
71.387213
 31
0.0
  0
LINE
  5
81
100
AcDbEntity
  8
0
  6
Continuous
 62
     4
100
AcDbLine
 10
145.051084
 20
132.887213
 30
0.0
 11
147.483472
 21
132.887213
 31
0.0
  0
LINE
  5
82
100
AcDbEntity
  8
0
  6
Continuous
 62
     4
100
AcDbLine
 10
150.252891
 20
132.887213
 30
0.0
 11
151.655845
 21
132.887213
 31
0.0
  0
LINE
  5
83
100
AcDbEntity
  8
0
  6
Continuous
 62
     4
100
AcDbLine
 10
138.175214
 20
132.887213
 30
0.0
 11
143.051084
 21
132.887213
 31
0.0
  0
LINE
  5
84
100
AcDbEntity
  8
0
  6
Continuous
 62
     2
100
AcDbLine
 10
149.255845
 20
130.037213
 30
0.0
 11
154.555845
 21
130.037213
 31
0.0
  0
LINE
  5
85
100
AcDbEntity
  8
0
  6
Continuous
 62
     4
100
AcDbLine
 10
199.055838
 20
116.337213
 30
0.0
 11
199.055838
 21
141.514727
 31
0.0
  0
LINE
  5
86
100
AcDbEntity
  8
0
  6
Continuous
 62
     4
100
AcDbLine
 10
148.655845
 20
137.387213
 30
0.0
 11
148.655845
 21
141.514727
 31
0.0
  0
LINE
  5
87
100
AcDbEntity
  8
0
  6
Continuous
 62
     4
100
AcDbLine
 10
194.555838
 20
111.737213
 30
0.0
 11
194.555838
 21
135.500461
 31
0.0
  0
LINE
  5
88
100
AcDbEntity
  8
0
  6
Continuous
 62
     4
100
AcDbLine
 10
154.555845
 20
132.037213
 30
0.0
 11
154.555845
 21
135.500461
 31
0.0
  0
LINE
  5
89
100
AcDbEntity
  8
0
  6
Continuous
 62
     4
100
AcDbLine
 10
234.560918
 20
214.453487
 30
0.0
 11
369.560918
 21
214.453487
 31
0.0
  0
LINE
  5
8A
100
AcDbEntity
  8
0
  6
Continuous
 62
     4
100
AcDbLine
 10
234.560918
 20
201.953487
 30
0.0
 11
369.560918
 21
201.953487
 31
0.0
  0
LINE
  5
8B
100
AcDbEntity
  8
0
  6
Continuous
 62
     4
100
AcDbLine
 10
234.560918
 20
191.953487
 30
0.0
 11
369.560918
 21
191.953487
 31
0.0
  0
LINE
  5
8C
100
AcDbEntity
  8
0
  6
Continuous
 62
     4
100
AcDbLine
 10
234.560918
 20
196.953487
 30
0.0
 11
369.560918
 21
196.953487
 31
0.0
  0
LINE
  5
8D
100
AcDbEntity
  8
0
  6
Continuous
 62
     4
100
AcDbLine
 10
234.560918
 20
206.953487
 30
0.0
 11
369.560918
 21
206.953487
 31
0.0
  0
LINE
  5
8E
100
AcDbEntity
  8
0
  6
Continuous
 62
     4
100
AcDbLine
 10
234.560918
 20
186.953487
 30
0.0
 11
369.560918
 21
186.953487
 31
0.0
  0
LINE
  5
8F
100
AcDbEntity
  8
0
  6
Continuous
 62
     4
100
AcDbLine
 10
234.560918
 20
181.953487
 30
0.0
 11
369.560918
 21
181.953487
 31
0.0
  0
LINE
  5
90
100
AcDbEntity
  8
0
  6
Continuous
 62
     4
100
AcDbLine
 10
234.560918
 20
176.953487
 30
0.0
 11
369.560918
 21
176.953487
 31
0.0
  0
LINE
  5
91
100
AcDbEntity
  8
0
  6
Continuous
 62
     4
100
AcDbLine
 10
234.560918
 20
171.953487
 30
0.0
 11
369.560918
 21
171.953487
 31
0.0
  0
LINE
  5
92
100
AcDbEntity
  8
0
  6
Continuous
 62
     4
100
AcDbLine
 10
234.560918
 20
166.953487
 30
0.0
 11
369.560918
 21
166.953487
 31
0.0
  0
LINE
  5
93
100
AcDbEntity
  8
0
  6
Continuous
 62
     4
100
AcDbLine
 10
234.560918
 20
161.953487
 30
0.0
 11
369.560918
 21
161.953487
 31
0.0
  0
LINE
  5
94
100
AcDbEntity
  8
0
  6
Continuous
 62
     4
100
AcDbLine
 10
234.560918
 20
156.525487
 30
0.0
 11
369.560918
 21
156.525487
 31
0.0
  0
LINE
  5
95
100
AcDbEntity
  8
0
  6
Continuous
 62
     4
100
AcDbLine
 10
234.560918
 20
151.525487
 30
0.0
 11
369.560918
 21
151.525487
 31
0.0
  0
LINE
  5
96
100
AcDbEntity
  8
0
  6
Continuous
 62
     4
100
AcDbLine
 10
234.560918
 20
146.525487
 30
0.0
 11
369.560918
 21
146.525487
 31
0.0
  0
LINE
  5
97
100
AcDbEntity
  8
0
  6
Continuous
 62
     4
100
AcDbLine
 10
234.560918
 20
146.525487
 30
0.0
 11
369.560918
 21
146.525487
 31
0.0
  0
LINE
  5
98
100
AcDbEntity
  8
0
  6
Continuous
 62
     4
100
AcDbLine
 10
234.560918
 20
141.525487
 30
0.0
 11
369.560918
 21
141.525487
 31
0.0
  0
LINE
  5
99
100
AcDbEntity
  8
0
  6
Continuous
 62
     4
100
AcDbLine
 10
234.560918
 20
131.525487
 30
0.0
 11
369.560918
 21
131.525487
 31
0.0
  0
LINE
  5
9A
100
AcDbEntity
  8
0
  6
Continuous
 62
     4
100
AcDbLine
 10
234.560918
 20
136.525487
 30
0.0
 11
369.560918
 21
136.525487
 31
0.0
  0
LINE
  5
9B
100
AcDbEntity
  8
0
  6
Continuous
 62
     4
100
AcDbLine
 10
234.560918
 20
131.525487
 30
0.0
 11
369.560918
 21
131.525487
 31
0.0
  0
LINE
  5
9C
100
AcDbEntity
  8
0
  6
Continuous
 62
     4
100
AcDbLine
 10
234.560918
 20
126.525487
 30
0.0
 11
369.560918
 21
126.525487
 31
0.0
  0
LINE
  5
9D
100
AcDbEntity
  8
0
  6
Continuous
 62
     4
100
AcDbLine
 10
234.560918
 20
121.525487
 30
0.0
 11
369.560918
 21
121.525487
 31
0.0
  0
LINE
  5
9E
100
AcDbEntity
  8
0
  6
Continuous
 62
     4
100
AcDbLine
 10
234.560918
 20
116.525487
 30
0.0
 11
369.560918
 21
116.525487
 31
0.0
  0
LINE
  5
9F
100
AcDbEntity
  8
0
  6
Continuous
 62
     4
100
AcDbLine
 10
234.560918
 20
111.525487
 30
0.0
 11
369.560918
 21
111.525487
 31
0.0
  0
LINE
  5
A0
100
AcDbEntity
  8
0
  6
Continuous
 62
     4
100
AcDbLine
 10
234.560918
 20
106.525487
 30
0.0
 11
369.560918
 21
106.525487
 31
0.0
  0
LINE
  5
A1
100
AcDbEntity
  8
0
  6
Continuous
 62
     4
100
AcDbLine
 10
234.560918
 20
101.525487
 30
0.0
 11
369.560918
 21
101.525487
 31
0.0
  0
LINE
  5
A2
100
AcDbEntity
  8
0
  6
Continuous
 62
     4
100
AcDbLine
 10
234.560918
 20
96.525487
 30
0.0
 11
369.560918
 21
96.525487
 31
0.0
  0
LINE
  5
A3
100
AcDbEntity
  8
0
  6
Continuous
 62
     4
100
AcDbLine
 10
234.560918
 20
91.525487
 30
0.0
 11
369.560918
 21
91.525487
 31
0.0
  0
LINE
  5
A4
100
AcDbEntity
  8
0
  6
Continuous
 62
     4
100
AcDbLine
 10
234.560918
 20
111.525487
 30
0.0
 11
369.560918
 21
111.525487
 31
0.0
  0
LINE
  5
A5
100
AcDbEntity
  8
0
  6
Continuous
 62
     4
100
AcDbLine
 10
369.560918
 20
214.453487
 30
0.0
 11
369.560918
 21
91.525487
 31
0.0
  0
LINE
  5
A6
100
AcDbEntity
  8
0
  6
Continuous
 62
     4
100
AcDbLine
 10
354.560918
 20
214.453487
 30
0.0
 11
354.560918
 21
91.525487
 31
0.0
  0
LINE
  5
A7
100
AcDbEntity
  8
0
  6
Continuous
 62
     4
100
AcDbLine
 10
339.560918
 20
214.453487
 30
0.0
 11
339.560918
 21
91.525487
 31
0.0
  0
LINE
  5
A8
100
AcDbEntity
  8
0
  6
Continuous
 62
     4
100
AcDbLine
 10
324.560918
 20
214.453487
 30
0.0
 11
324.560918
 21
91.525487
 31
0.0
  0
LINE
  5
A9
100
AcDbEntity
  8
0
  6
Continuous
 62
     4
100
AcDbLine
 10
309.560918
 20
214.453487
 30
0.0
 11
309.560918
 21
91.525487
 31
0.0
  0
LINE
  5
AA
100
AcDbEntity
  8
0
  6
Continuous
 62
     4
100
AcDbLine
 10
294.560918
 20
214.453487
 30
0.0
 11
294.560918
 21
91.525487
 31
0.0
  0
LINE
  5
AB
100
AcDbEntity
  8
0
  6
Continuous
 62
     4
100
AcDbLine
 10
279.560918
 20
214.453487
 30
0.0
 11
279.560918
 21
91.525487
 31
0.0
  0
LINE
  5
AC
100
AcDbEntity
  8
0
  6
Continuous
 62
     4
100
AcDbLine
 10
264.560918
 20
214.453487
 30
0.0
 11
264.560918
 21
91.525487
 31
0.0
  0
LINE
  5
AD
100
AcDbEntity
  8
0
  6
Continuous
 62
     4
100
AcDbLine
 10
249.560918
 20
214.453487
 30
0.0
 11
249.560918
 21
91.525487
 31
0.0
  0
LINE
  5
AE
100
AcDbEntity
  8
0
  6
Continuous
 62
     4
100
AcDbLine
 10
234.560918
 20
214.453487
 30
0.0
 11
234.560918
 21
91.525487
 31
0.0
  0
LINE
  5
AF
100
AcDbEntity
  8
0
  6
Continuous
 62
     4
100
AcDbLine
 10
173.570327
 20
209.632867
 30
0.0
 11
173.35171
 21
206.640843
 31
0.0
  0
LINE
  5
B0
100
AcDbEntity
  8
0
  6
Continuous
 62
     4
100
AcDbLine
 10
173.570327
 20
209.632867
 30
0.0
 11
172.341561
 21
206.896056
 31
0.0
  0
LINE
  5
B1
100
AcDbEntity
  8
0
  6
Continuous
 62
     4
100
AcDbLine
 10
173.570327
 20
209.632867
 30
0.0
 11
171.784834
 21
202.565773
 31
0.0
  0
LINE
  5
B2
100
AcDbEntity
  8
0
  6
Continuous
 62
     4
100
AcDbLine
 10
176.884261
 20
117.43996
 30
0.0
 11
176.017667
 21
114.56785
 31
0.0
  0
LINE
  5
B3
100
AcDbEntity
  8
0
  6
Continuous
 62
     4
100
AcDbLine
 10
176.884261
 20
117.43996
 30
0.0
 11
175.08761
 21
115.037452
 31
0.0
  0
LINE
  5
B4
100
AcDbEntity
  8
0
  6
Continuous
 62
     4
100
AcDbLine
 10
176.884261
 20
117.43996
 30
0.0
 11
173.224228
 21
110.191182
 31
0.0
  0
LINE
  5
B5
100
AcDbEntity
  8
0
  6
Continuous
 62
     4
100
AcDbLine
 10
173.789033
 20
103.387213
 30
0.0
 11
173.268089
 21
106.341636
 31
0.0
  0
LINE
  5
B6
100
AcDbEntity
  8
0
  6
Continuous
 62
     4
100
AcDbLine
 10
173.789033
 20
103.387213
 30
0.0
 11
174.309978
 21
106.341636
 31
0.0
  0
LINE
  5
B7
100
AcDbEntity
  8
0
  6
Continuous
 62
     4
100
AcDbLine
 10
173.789033
 20
103.387213
 30
0.0
 11
173.789033
 21
107.680361
 31
0.0
  0
LINE
  5
B8
100
AcDbEntity
  8
0
  6
Continuous
 62
     4
100
AcDbLine
 10
173.789033
 20
93.287213
 30
0.0
 11
174.309978
 21
90.33279
 31
0.0
  0
LINE
  5
B9
100
AcDbEntity
  8
0
  6
Continuous
 62
     4
100
AcDbLine
 10
173.789033
 20
93.287213
 30
0.0
 11
173.268089
 21
90.33279
 31
0.0
  0
LINE
  5
BA
100
AcDbEntity
  8
0
  6
Continuous
 62
     4
100
AcDbLine
 10
173.789033
 20
93.287213
 30
0.0
 11
173.789033
 21
87.551172
 31
0.0
  0
LINE
  5
BB
100
AcDbEntity
  8
0
  6
Continuous
 62
     4
100
AcDbLine
 10
173.732368
 20
210.443067
 30
0.0
 11
173.950986
 21
213.435091
 31
0.0
  0
LINE
  5
BC
100
AcDbEntity
  8
0
  6
Continuous
 62
     4
100
AcDbLine
 10
173.732368
 20
210.443067
 30
0.0
 11
174.961134
 21
213.179878
 31
0.0
  0
LINE
  5
BD
100
AcDbEntity
  8
0
  6
Continuous
 62
     4
100
AcDbLine
 10
182.755627
 20
213.84592
 30
0.0
 11
174.592096
 21
213.84592
 31
0.0
  0
LINE
  5
BE
100
AcDbEntity
  8
0
  6
Continuous
 62
     4
100
AcDbLine
 10
173.732368
 20
210.443067
 30
0.0
 11
174.592096
 21
213.84592
 31
0.0
  0
LINE
  5
BF
100
AcDbEntity
  8
0
  6
Continuous
 62
     4
100
AcDbLine
 10
206.773958
 20
169.986247
 30
0.0
 11
206.253014
 21
172.94067
 31
0.0
  0
LINE
  5
C0
100
AcDbEntity
  8
0
  6
Continuous
 62
     4
100
AcDbLine
 10
206.773958
 20
169.986247
 30
0.0
 11
207.294903
 21
172.94067
 31
0.0
  0
LINE
  5
C1
100
AcDbEntity
  8
0
  6
Continuous
 62
     4
100
AcDbLine
 10
206.773958
 20
208.186247
 30
0.0
 11
207.294903
 21
205.231823
 31
0.0
  0
LINE
  5
C2
100
AcDbEntity
  8
0
  6
Continuous
 62
     4
100
AcDbLine
 10
206.773958
 20
208.186247
 30
0.0
 11
206.253014
 21
205.231823
 31
0.0
  0
LINE
  5
C3
100
AcDbEntity
  8
0
  6
Continuous
 62
     4
100
AcDbLine
 10
206.773958
 20
208.186247
 30
0.0
 11
206.773958
 21
169.986247
 31
0.0
  0
LINE
  5
C4
100
AcDbEntity
  8
0
  6
Continuous
 62
     4
100
AcDbLine
 10
139.501967
 20
159.586247
 30
0.0
 11
138.981023
 21
162.54067
 31
0.0
  0
LINE
  5
C5
100
AcDbEntity
  8
0
  6
Continuous
 62
     4
100
AcDbLine
 10
139.501967
 20
159.586247
 30
0.0
 11
140.022912
 21
162.54067
 31
0.0
  0
LINE
  5
C6
100
AcDbEntity
  8
0
  6
Continuous
 62
     4
100
AcDbLine
 10
139.501967
 20
218.586247
 30
0.0
 11
140.022912
 21
215.631823
 31
0.0
  0
LINE
  5
C7
100
AcDbEntity
  8
0
  6
Continuous
 62
     4
100
AcDbLine
 10
139.501967
 20
218.586247
 30
0.0
 11
138.981023
 21
215.631823
 31
0.0
  0
LINE
  5
C8
100
AcDbEntity
  8
0
  6
Continuous
 62
     4
100
AcDbLine
 10
139.501967
 20
218.586247
 30
0.0
 11
139.501967
 21
159.586247
 31
0.0
  0
LINE
  5
C9
100
AcDbEntity
  8
0
  6
Continuous
 62
     4
100
AcDbLine
 10
198.738368
 20
208.715207
 30
0.0
 11
201.036502
 21
210.64357
 31
0.0
  0
LINE
  5
CA
100
AcDbEntity
  8
0
  6
Continuous
 62
     4
100
AcDbLine
 10
198.738368
 20
208.715207
 30
0.0
 11
201.557446
 21
209.741268
 31
0.0
  0
LINE
  5
CB
100
AcDbEntity
  8
0
  6
Continuous
 62
     4
100
AcDbLine
 10
218.32979
 20
212.061052
 30
0.0
 11
204.533542
 21
212.061052
 31
0.0
  0
LINE
  5
CC
100
AcDbEntity
  8
0
  6
Continuous
 62
     4
100
AcDbLine
 10
198.738368
 20
208.715207
 30
0.0
 11
204.533542
 21
212.061052
 31
0.0
  0
LINE
  5
CD
100
AcDbEntity
  8
0
  6
Continuous
 62
     4
100
AcDbLine
 10
147.881528
 20
218.529687
 30
0.0
 11
145.062451
 21
219.555748
 31
0.0
  0
LINE
  5
CE
100
AcDbEntity
  8
0
  6
Continuous
 62
     4
100
AcDbLine
 10
147.881528
 20
218.529687
 30
0.0
 11
145.583395
 21
220.45805
 31
0.0
  0
LINE
  5
CF
100
AcDbEntity
  8
0
  6
Continuous
 62
     4
100
AcDbLine
 10
126.059543
 20
222.544701
 30
0.0
 11
140.92732
 21
222.544701
 31
0.0
  0
LINE
  5
D0
100
AcDbEntity
  8
0
  6
Continuous
 62
     4
100
AcDbLine
 10
147.881528
 20
218.529687
 30
0.0
 11
140.92732
 21
222.544701
 31
0.0
  0
LINE
  5
D1
100
AcDbEntity
  8
0
  6
Continuous
 62
     4
100
AcDbLine
 10
198.950688
 20
226.498547
 30
0.0
 11
195.996265
 21
225.977603
 31
0.0
  0
LINE
  5
D2
100
AcDbEntity
  8
0
  6
Continuous
 62
     4
100
AcDbLine
 10
198.950688
 20
226.498547
 30
0.0
 11
195.996265
 21
227.019492
 31
0.0
  0
LINE
  5
D3
100
AcDbEntity
  8
0
  6
Continuous
 62
     4
100
AcDbLine
 10
148.550688
 20
226.498547
 30
0.0
 11
151.505112
 21
227.019492
 31
0.0
  0
LINE
  5
D4
100
AcDbEntity
  8
0
  6
Continuous
 62
     4
100
AcDbLine
 10
148.550688
 20
226.498547
 30
0.0
 11
151.505112
 21
225.977603
 31
0.0
  0
LINE
  5
D5
100
AcDbEntity
  8
0
  6
Continuous
 62
     4
100
AcDbLine
 10
148.550688
 20
226.498547
 30
0.0
 11
198.950688
 21
226.498547
 31
0.0
  0
LINE
  5
D6
100
AcDbEntity
  8
0
  6
Continuous
 62
     4
100
AcDbLine
 10
194.450688
 20
220.123107
 30
0.0
 11
191.496265
 21
219.602163
 31
0.0
  0
LINE
  5
D7
100
AcDbEntity
  8
0
  6
Continuous
 62
     4
100
AcDbLine
 10
194.450688
 20
220.123107
 30
0.0
 11
191.496265
 21
220.644052
 31
0.0
  0
LINE
  5
D8
100
AcDbEntity
  8
0
  6
Continuous
 62
     4
100
AcDbLine
 10
154.450688
 20
220.123107
 30
0.0
 11
157.405112
 21
220.644052
 31
0.0
  0
LINE
  5
D9
100
AcDbEntity
  8
0
  6
Continuous
 62
     4
100
AcDbLine
 10
154.450688
 20
220.123107
 30
0.0
 11
157.405112
 21
219.602163
 31
0.0
  0
LINE
  5
DA
100
AcDbEntity
  8
0
  6
Continuous
 62
     4
100
AcDbLine
 10
154.450688
 20
220.123107
 30
0.0
 11
194.450688
 21
220.123107
 31
0.0
  0
LINE
  5
DB
100
AcDbEntity
  8
0
  6
Continuous
 62
     4
100
AcDbLine
 10
177.179044
 20
118.176919
 30
0.0
 11
178.045639
 21
121.049029
 31
0.0
  0
LINE
  5
DC
100
AcDbEntity
  8
0
  6
Continuous
 62
     4
100
AcDbLine
 10
177.179044
 20
118.176919
 30
0.0
 11
178.975696
 21
120.579427
 31
0.0
  0
LINE
  5
DD
100
AcDbEntity
  8
0
  6
Continuous
 62
     4
100
AcDbLine
 10
186.337757
 20
121.272146
 30
0.0
 11
178.741878
 21
121.272146
 31
0.0
  0
LINE
  5
DE
100
AcDbEntity
  8
0
  6
Continuous
 62
     4
100
AcDbLine
 10
177.179044
 20
118.176919
 30
0.0
 11
178.741878
 21
121.272146
 31
0.0
  0
LINE
  5
DF
100
AcDbEntity
  8
0
  6
Continuous
 62
     4
100
AcDbLine
 10
205.005968
 20
74.187213
 30
0.0
 11
204.485024
 21
77.141636
 31
0.0
  0
LINE
  5
E0
100
AcDbEntity
  8
0
  6
Continuous
 62
     4
100
AcDbLine
 10
205.005968
 20
74.187213
 30
0.0
 11
205.526913
 21
77.141636
 31
0.0
  0
LINE
  5
E1
100
AcDbEntity
  8
0
  6
Continuous
 62
     4
100
AcDbLine
 10
205.005968
 20
112.387213
 30
0.0
 11
205.526913
 21
109.432789
 31
0.0
  0
LINE
  5
E2
100
AcDbEntity
  8
0
  6
Continuous
 62
     4
100
AcDbLine
 10
205.005968
 20
112.387213
 30
0.0
 11
204.485024
 21
109.432789
 31
0.0
  0
LINE
  5
E3
100
AcDbEntity
  8
0
  6
Continuous
 62
     4
100
AcDbLine
 10
205.005968
 20
112.387213
 30
0.0
 11
205.005968
 21
74.187213
 31
0.0
  0
LINE
  5
E4
100
AcDbEntity
  8
0
  6
Continuous
 62
     4
100
AcDbLine
 10
199.055838
 20
140.514727
 30
0.0
 11
196.101415
 21
139.993783
 31
0.0
  0
LINE
  5
E5
100
AcDbEntity
  8
0
  6
Continuous
 62
     4
100
AcDbLine
 10
199.055838
 20
140.514727
 30
0.0
 11
196.101415
 21
141.035672
 31
0.0
  0
LINE
  5
E6
100
AcDbEntity
  8
0
  6
Continuous
 62
     4
100
AcDbLine
 10
148.655838
 20
140.514727
 30
0.0
 11
151.610262
 21
141.035672
 31
0.0
  0
LINE
  5
E7
100
AcDbEntity
  8
0
  6
Continuous
 62
     4
100
AcDbLine
 10
148.655838
 20
140.514727
 30
0.0
 11
151.610262
 21
139.993783
 31
0.0
  0
LINE
  5
E8
100
AcDbEntity
  8
0
  6
Continuous
 62
     4
100
AcDbLine
 10
148.655838
 20
140.514727
 30
0.0
 11
199.055838
 21
140.514727
 31
0.0
  0
LINE
  5
E9
100
AcDbEntity
  8
0
  6
Continuous
 62
     4
100
AcDbLine
 10
194.555838
 20
134.500461
 30
0.0
 11
191.601415
 21
133.979517
 31
0.0
  0
LINE
  5
EA
100
AcDbEntity
  8
0
  6
Continuous
 62
     4
100
AcDbLine
 10
194.555838
 20
134.500461
 30
0.0
 11
191.601415
 21
135.021406
 31
0.0
  0
LINE
  5
EB
100
AcDbEntity
  8
0
  6
Continuous
 62
     4
100
AcDbLine
 10
154.555838
 20
134.500461
 30
0.0
 11
157.510262
 21
135.021406
 31
0.0
  0
LINE
  5
EC
100
AcDbEntity
  8
0
  6
Continuous
 62
     4
100
AcDbLine
 10
154.555838
 20
134.500461
 30
0.0
 11
157.510262
 21
133.979517
 31
0.0
  0
LINE
  5
ED
100
AcDbEntity
  8
0
  6
Continuous
 62
     4
100
AcDbLine
 10
154.555838
 20
134.500461
 30
0.0
 11
194.555838
 21
134.500461
 31
0.0
  0
LINE
  5
EE
100
AcDbEntity
  8
0
  6
Continuous
 62
     4
100
AcDbLine
 10
199.331808
 20
112.629057
 30
0.0
 11
201.629942
 21
114.55742
 31
0.0
  0
LINE
  5
EF
100
AcDbEntity
  8
0
  6
Continuous
 62
     4
100
AcDbLine
 10
199.331808
 20
112.629057
 30
0.0
 11
202.150886
 21
113.655118
 31
0.0
  0
LINE
  5
F0
100
AcDbEntity
  8
0
  6
Continuous
 62
     4
100
AcDbLine
 10
216.857195
 20
116.499257
 30
0.0
 11
206.03519
 21
116.499257
 31
0.0
  0
LINE
  5
F1
100
AcDbEntity
  8
0
  6
Continuous
 62
     4
100
AcDbLine
 10
199.331808
 20
112.629057
 30
0.0
 11
206.03519
 21
116.499257
 31
0.0
  0
LINE
  5
F2
100
AcDbEntity
  8
0
  6
Continuous
 62
     4
100
AcDbLine
 10
148.159177
 20
133.27012
 30
0.0
 11
145.3401
 21
134.296181
 31
0.0
  0
LINE
  5
F3
100
AcDbEntity
  8
0
  6
Continuous
 62
     4
100
AcDbLine
 10
148.159177
 20
133.27012
 30
0.0
 11
145.861044
 21
135.198483
 31
0.0
  0
LINE
  5
F4
100
AcDbEntity
  8
0
  6
Continuous
 62
     4
100
AcDbLine
 10
127.193612
 20
136.710297
 30
0.0
 11
142.200616
 21
136.710297
 31
0.0
  0
LINE
  5
F5
100
AcDbEntity
  8
0
  6
Continuous
 62
     4
100
AcDbLine
 10
148.159177
 20
133.27012
 30
0.0
 11
142.200616
 21
136.710297
 31
0.0
  0
TEXT
  5
F6
100
AcDbEntity
  8
0
 62
     7
100
AcDbText
 10
332.602518
 20
61.105229
 30
0.0
 40
4.0
  1
東都積水株式会社
 41
0.7695
  7
FontTableH_0
 72
     5
 11
364.602518
 21
61.105229
 31
0.0
100
AcDbText
  0
TEXT
  5
F7
100
AcDbEntity
  8
0
 62
     7
100
AcDbText
 10
138.175214
 20
96.637213
 30
0.0
 40
4.0
  1
ＰＣＤ Ａ
 50
90.0
 41
0.7695
  7
FontTableH_0
 72
     5
 11
138.175214
 21
116.437213
 31
0.0
100
AcDbText
  0
TEXT
  5
F8
100
AcDbEntity
  8
0
 62
     7
100
AcDbText
 10
238.771168
 20
208.650287
 30
0.0
 40
4.0
  1
呼称
 41
0.7695
  7
FontTableH_0
 72
     5
 11
246.771168
 21
208.650287
 31
0.0
100
AcDbText
  0
TEXT
  5
F9
100
AcDbEntity
  8
0
 62
     7
100
AcDbText
 10
360.539708
 20
208.590977
 30
0.0
 40
4.0
  1
Ｈ
 41
0.7695
  7
FontTableH_0
 72
     5
 11
364.539708
 21
208.590977
 31
0.0
100
AcDbText
  0
TEXT
  5
FA
100
AcDbEntity
  8
0
 62
     7
100
AcDbText
 10
345.271168
 20
208.650287
 30
0.0
 40
4.0
  1
Ｔ
 41
0.7695
  7
FontTableH_0
 72
     5
 11
349.271168
 21
208.650287
 31
0.0
100
AcDbText
  0
TEXT
  5
FB
100
AcDbEntity
  8
0
 62
     7
100
AcDbText
 10
172.789033
 20
96.837213
 30
0.0
 40
4.0
  1
Ｈ
 50
90.0
 41
0.7695
  7
FontTableH_0
 72
     5
 11
172.789033
 21
100.837213
 31
0.0
100
AcDbText
  0
TEXT
  5
FC
100
AcDbEntity
  8
0
 62
     7
100
AcDbText
 10
252.771168
 20
208.650287
 30
0.0
 40
4.0
  1
Ｌ１
 41
0.7695
  7
FontTableH_0
 72
     5
 11
260.771168
 21
208.650287
 31
0.0
100
AcDbText
  0
TEXT
  5
FD
100
AcDbEntity
  8
0
 62
     7
100
AcDbText
 10
267.771168
 20
208.650287
 30
0.0
 40
4.0
  1
Ｌ２
 41
0.7695
  7
FontTableH_0
 72
     5
 11
275.771168
 21
208.650287
 31
0.0
100
AcDbText
  0
TEXT
  5
FE
100
AcDbEntity
  8
0
 62
     7
100
AcDbText
 10
360.496688
 20
102.011338
 30
0.0
 40
3.0
  1
－
 41
0.7695
  7
FontTableH_0
 72
     5
 11
363.496688
 21
102.011338
 31
0.0
100
AcDbText
  0
TEXT
  5
FF
100
AcDbEntity
  8
0
 62
     7
100
AcDbText
 10
360.496688
 20
107.011338
 30
0.0
 40
3.0
  1
－
 41
0.7695
  7
FontTableH_0
 72
     5
 11
363.496688
 21
107.011338
 31
0.0
100
AcDbText
  0
TEXT
  5
100
100
AcDbEntity
  8
0
 62
     7
100
AcDbText
 10
360.496688
 20
97.011338
 30
0.0
 40
3.0
  1
－
 41
0.7695
  7
FontTableH_0
 72
     5
 11
363.496688
 21
97.011338
 31
0.0
100
AcDbText
  0
TEXT
  5
101
100
AcDbEntity
  8
0
 62
     7
100
AcDbText
 10
360.496688
 20
92.011338
 30
0.0
 40
3.0
  1
－
 41
0.7695
  7
FontTableH_0
 72
     5
 11
363.496688
 21
92.011338
 31
0.0
100
AcDbText
  0
TEXT
  5
102
100
AcDbEntity
  8
0
 62
     7
100
AcDbText
 10
178.755627
 20
214.84592
 30
0.0
 40
4.0
  1
Ｔ
 41
0.7695
  7
FontTableH_0
 72
     5
 11
182.755627
 21
214.84592
 31
0.0
100
AcDbText
  0
TEXT
  5
103
100
AcDbEntity
  8
0
 62
     7
100
AcDbText
 10
205.773958
 20
182.336247
 30
0.0
 40
4.0
  1
ＰＣＤ Ｂ
 50
90.0
 41
0.7695
  7
FontTableH_0
 72
     5
 11
205.773958
 21
202.136247
 31
0.0
100
AcDbText
  0
TEXT
  5
104
100
AcDbEntity
  8
0
 62
     7
100
AcDbText
 10
138.501967
 20
182.336247
 30
0.0
 40
4.0
  1
ＰＣＤ Ａ
 50
90.0
 41
0.7695
  7
FontTableH_0
 72
     5
 11
138.501967
 21
202.136247
 31
0.0
100
AcDbText
  0
TEXT
  5
105
100
AcDbEntity
  8
0
 62
     7
100
AcDbText
 10
208.329791
 20
213.061052
 30
0.0
 40
4.0
  1
Ｂn-φ
 41
0.7695
  7
FontTableH_0
 72
     5
 11
223.329791
 21
213.061052
 31
0.0
100
AcDbText
  0
TEXT
  5
106
100
AcDbEntity
  8
0
 62
     7
100
AcDbText
 10
127.059543
 20
223.544701
 30
0.0
 40
4.0
  1
Ａn-φ
 41
0.7695
  7
FontTableH_0
 72
     5
 11
142.059543
 21
223.544701
 31
0.0
100
AcDbText
  0
TEXT
  5
107
100
AcDbEntity
  8
0
 62
     7
100
AcDbText
 10
170.750688
 20
227.498547
 30
0.0
 40
4.0
  1
Ｌ１
 41
0.7695
  7
FontTableH_0
 72
     5
 11
178.750688
 21
227.498547
 31
0.0
100
AcDbText
  0
TEXT
  5
108
100
AcDbEntity
  8
0
 62
     7
100
AcDbText
 10
171.450688
 20
221.123107
 30
0.0
 40
4.0
  1
Ｌ２
 41
0.7695
  7
FontTableH_0
 72
     5
 11
179.450688
 21
221.123107
 31
0.0
100
AcDbText
  0
TEXT
  5
109
100
AcDbEntity
  8
0
 62
     7
100
AcDbText
 10
182.337757
 20
122.272146
 30
0.0
 40
4.0
  1
Ｔ
 41
0.7695
  7
FontTableH_0
 72
     5
 11
186.337757
 21
122.272146
 31
0.0
100
AcDbText
  0
TEXT
  5
10A
100
AcDbEntity
  8
0
 62
     7
100
AcDbText
 10
204.005968
 20
86.537213
 30
0.0
 40
4.0
  1
ＰＣＤ Ｂ
 50
90.0
 41
0.7695
  7
FontTableH_0
 72
     5
 11
204.005968
 21
106.337213
 31
0.0
100
AcDbText
  0
TEXT
  5
10B
100
AcDbEntity
  8
0
 62
     7
100
AcDbText
 10
170.855838
 20
141.514727
 30
0.0
 40
4.0
  1
Ｌ１
 41
0.7695
  7
FontTableH_0
 72
     5
 11
178.855838
 21
141.514727
 31
0.0
100
AcDbText
  0
TEXT
  5
10C
100
AcDbEntity
  8
0
 62
     7
100
AcDbText
 10
171.555838
 20
135.500461
 30
0.0
 40
4.0
  1
Ｌ２
 41
0.7695
  7
FontTableH_0
 72
     5
 11
179.555838
 21
135.500461
 31
0.0
100
AcDbText
  0
TEXT
  5
10D
100
AcDbEntity
  8
0
 62
     7
100
AcDbText
 10
206.857196
 20
117.499257
 30
0.0
 40
4.0
  1
Ｂn-φ
 41
0.7695
  7
FontTableH_0
 72
     5
 11
221.857196
 21
117.499257
 31
0.0
100
AcDbText
  0
TEXT
  5
10E
100
AcDbEntity
  8
0
 62
     7
100
AcDbText
 10
128.193612
 20
137.710297
 30
0.0
 40
4.0
  1
Ａn-φ
 41
0.7695
  7
FontTableH_0
 72
     5
 11
143.193612
 21
137.710297
 31
0.0
100
AcDbText
  0
TEXT
  5
10F
100
AcDbEntity
  8
0
 62
     7
100
AcDbText
 10
333.201958
 20
49.992695
 30
0.0
 40
2.5
  1
レジューサ,片落ちレジューサ
 41
0.7695
  7
FontTableH_0
 72
     5
 11
368.157316
 21
49.992695
 31
0.0
100
AcDbText
  0
TEXT
  5
110
100
AcDbEntity
  8
0
 62
     7
100
AcDbText
 10
333.847128
 20
55.15401
 30
0.0
 40
2.5
  1
フランジタイプ
 41
0.7695
  7
FontTableH_0
 72
     5
 11
351.347128
 21
55.15401
 31
0.0
100
AcDbText
  0
TEXT
  5
111
100
AcDbEntity
  8
0
 62
     7
100
AcDbText
 10
236.955188
 20
202.861757
 30
0.0
 40
3.0
  1
200x150
 41
0.7695
  7
FontTableH_0
 72
     5
 11
247.455188
 21
202.861757
 31
0.0
100
AcDbText
  0
TEXT
  5
112
100
AcDbEntity
  8
0
 62
     7
100
AcDbText
 10
236.955188
 20
197.861757
 30
0.0
 40
3.0
  1
250x250
 41
0.7695
  7
FontTableH_0
 72
     5
 11
247.455188
 21
197.861757
 31
0.0
100
AcDbText
  0
TEXT
  5
113
100
AcDbEntity
  8
0
 62
     7
100
AcDbText
 10
236.955188
 20
192.861757
 30
0.0
 40
3.0
  1
   x150
 41
0.7695
  7
FontTableH_0
 72
     5
 11
247.455188
 21
192.861757
 31
0.0
100
AcDbText
  0
TEXT
  5
114
100
AcDbEntity
  8
0
 62
     7
100
AcDbText
 10
236.955188
 20
187.861757
 30
0.0
 40
3.0
  1
300x250
 41
0.7695
  7
FontTableH_0
 72
     5
 11
247.455188
 21
187.861757
 31
0.0
100
AcDbText
  0
TEXT
  5
115
100
AcDbEntity
  8
0
 62
     7
100
AcDbText
 10
236.955188
 20
182.861757
 30
0.0
 40
3.0
  1
   x200
 41
0.7695
  7
FontTableH_0
 72
     5
 11
247.455188
 21
182.861757
 31
0.0
100
AcDbText
  0
TEXT
  5
116
100
AcDbEntity
  8
0
 62
     7
100
AcDbText
 10
236.955188
 20
177.861757
 30
0.0
 40
3.0
  1
   x150
 41
0.7695
  7
FontTableH_0
 72
     5
 11
247.455188
 21
177.861757
 31
0.0
100
AcDbText
  0
TEXT
  5
117
100
AcDbEntity
  8
0
 62
     7
100
AcDbText
 10
236.955188
 20
172.861757
 30
0.0
 40
3.0
  1
350x300
 41
0.7695
  7
FontTableH_0
 72
     5
 11
247.455188
 21
172.861757
 31
0.0
100
AcDbText
  0
TEXT
  5
118
100
AcDbEntity
  8
0
 62
     7
100
AcDbText
 10
236.955188
 20
167.861757
 30
0.0
 40
3.0
  1
   x250
 41
0.7695
  7
FontTableH_0
 72
     5
 11
247.455188
 21
167.861757
 31
0.0
100
AcDbText
  0
TEXT
  5
119
100
AcDbEntity
  8
0
 62
     7
100
AcDbText
 10
236.955188
 20
162.861757
 30
0.0
 40
3.0
  1
   x200
 41
0.7695
  7
FontTableH_0
 72
     5
 11
247.455188
 21
162.861757
 31
0.0
100
AcDbText
  0
TEXT
  5
11A
100
AcDbEntity
  8
0
 62
     7
100
AcDbText
 10
236.955188
 20
157.433757
 30
0.0
 40
3.0
  1
400x350
 41
0.7695
  7
FontTableH_0
 72
     5
 11
247.455188
 21
157.433757
 31
0.0
100
AcDbText
  0
TEXT
  5
11B
100
AcDbEntity
  8
0
 62
     7
100
AcDbText
 10
236.955188
 20
152.433757
 30
0.0
 40
3.0
  1
   x300
 41
0.7695
  7
FontTableH_0
 72
     5
 11
247.455188
 21
152.433757
 31
0.0
100
AcDbText
  0
TEXT
  5
11C
100
AcDbEntity
  8
0
 62
     7
100
AcDbText
 10
236.955188
 20
147.433757
 30
0.0
 40
3.0
  1
   x250
 41
0.7695
  7
FontTableH_0
 72
     5
 11
247.455188
 21
147.433757
 31
0.0
100
AcDbText
  0
TEXT
  5
11D
100
AcDbEntity
  8
0
 62
     7
100
AcDbText
 10
236.955188
 20
142.433757
 30
0.0
 40
3.0
  1
450x400
 41
0.7695
  7
FontTableH_0
 72
     5
 11
247.455188
 21
142.433757
 31
0.0
100
AcDbText
  0
TEXT
  5
11E
100
AcDbEntity
  8
0
 62
     7
100
AcDbText
 10
236.955188
 20
137.433764
 30
0.0
 40
3.0
  1
   x350
 41
0.7695
  7
FontTableH_0
 72
     5
 11
247.455188
 21
137.433764
 31
0.0
100
AcDbText
  0
TEXT
  5
11F
100
AcDbEntity
  8
0
 62
     7
100
AcDbText
 10
236.955188
 20
132.433764
 30
0.0
 40
3.0
  1
   x300
 41
0.7695
  7
FontTableH_0
 72
     5
 11
247.455188
 21
132.433764
 31
0.0
100
AcDbText
  0
TEXT
  5
120
100
AcDbEntity
  8
0
 62
     7
100
AcDbText
 10
236.955188
 20
127.433764
 30
0.0
 40
3.0
  1
500x450
 41
0.7695
  7
FontTableH_0
 72
     5
 11
247.455188
 21
127.433764
 31
0.0
100
AcDbText
  0
TEXT
  5
121
100
AcDbEntity
  8
0
 62
     7
100
AcDbText
 10
236.955188
 20
122.433764
 30
0.0
 40
3.0
  1
   x400
 41
0.7695
  7
FontTableH_0
 72
     5
 11
247.455188
 21
122.433764
 31
0.0
100
AcDbText
  0
TEXT
  5
122
100
AcDbEntity
  8
0
 62
     7
100
AcDbText
 10
236.955188
 20
117.433764
 30
0.0
 40
3.0
  1
   x350
 41
0.7695
  7
FontTableH_0
 72
     5
 11
247.455188
 21
117.433764
 31
0.0
100
AcDbText
  0
TEXT
  5
123
100
AcDbEntity
  8
0
 62
     7
100
AcDbText
 10
236.955188
 20
112.433764
 30
0.0
 40
3.0
  1
   x300
 41
0.7695
  7
FontTableH_0
 72
     5
 11
247.455188
 21
112.433764
 31
0.0
100
AcDbText
  0
TEXT
  5
124
100
AcDbEntity
  8
0
 62
     7
100
AcDbText
 10
236.955188
 20
107.433764
 30
0.0
 40
3.0
  1
600x500
 41
0.7695
  7
FontTableH_0
 72
     5
 11
247.455188
 21
107.433764
 31
0.0
100
AcDbText
  0
TEXT
  5
125
100
AcDbEntity
  8
0
 62
     7
100
AcDbText
 10
236.955188
 20
102.433764
 30
0.0
 40
3.0
  1
   x450
 41
0.7695
  7
FontTableH_0
 72
     5
 11
247.455188
 21
102.433764
 31
0.0
100
AcDbText
  0
TEXT
  5
126
100
AcDbEntity
  8
0
 62
     7
100
AcDbText
 10
236.955188
 20
97.433764
 30
0.0
 40
3.0
  1
   x400
 41
0.7695
  7
FontTableH_0
 72
     5
 11
247.455188
 21
97.433764
 31
0.0
100
AcDbText
  0
TEXT
  5
127
100
AcDbEntity
  8
0
 62
     7
100
AcDbText
 10
236.955188
 20
92.433764
 30
0.0
 40
3.0
  1
   x350
 41
0.7695
  7
FontTableH_0
 72
     5
 11
247.455188
 21
92.433764
 31
0.0
100
AcDbText
  0
TEXT
  5
128
100
AcDbEntity
  8
0
 62
     7
100
AcDbText
 10
282.271168
 20
208.650287
 30
0.0
 40
3.0
  1
PCD A
 41
0.7695
  7
FontTableH_0
 72
     5
 11
289.771168
 21
208.650287
 31
0.0
100
AcDbText
  0
TEXT
  5
129
100
AcDbEntity
  8
0
 62
     7
100
AcDbText
 10
326.771168
 20
208.650287
 30
0.0
 40
3.0
  1
Ｂn-φ
 41
0.7695
  7
FontTableH_0
 72
     5
 11
335.771168
 21
208.650287
 31
0.0
100
AcDbText
  0
TEXT
  5
12A
100
AcDbEntity
  8
0
 62
     7
100
AcDbText
 10
311.771168
 20
208.650287
 30
0.0
 40
3.0
  1
PCD B
 41
0.7695
  7
FontTableH_0
 72
     5
 11
319.271168
 21
208.650287
 31
0.0
100
AcDbText
  0
TEXT
  5
12B
100
AcDbEntity
  8
0
 62
     7
100
AcDbText
 10
296.771168
 20
208.650287
 30
0.0
 40
3.0
  1
Ａn-φ
 41
0.7695
  7
FontTableH_0
 72
     5
 11
305.771168
 21
208.650287
 31
0.0
100
AcDbText
  0
TEXT
  5
12C
100
AcDbEntity
  8
0
 62
     7
100
AcDbText
 10
358.496688
 20
202.439337
 30
0.0
 40
3.0
  1
22.5
 41
0.7695
  7
FontTableH_0
 72
     5
 11
367.496688
 21
202.439337
 31
0.0
100
AcDbText
  0
TEXT
  5
12D
100
AcDbEntity
  8
0
 62
     7
100
AcDbText
 10
252.955188
 20
202.861757
 30
0.0
 40
3.0
  1
180
 41
0.7695
  7
FontTableH_0
 72
     5
 11
259.705188
 21
202.861757
 31
0.0
100
AcDbText
  0
TEXT
  5
12E
100
AcDbEntity
  8
0
 62
     7
100
AcDbText
 10
267.955188
 20
202.861757
 30
0.0
 40
3.0
  1
100
 41
0.7695
  7
FontTableH_0
 72
     5
 11
274.705188
 21
202.861757
 31
0.0
100
AcDbText
  0
TEXT
  5
12F
100
AcDbEntity
  8
0
 62
     7
100
AcDbText
 10
282.955188
 20
202.861757
 30
0.0
 40
3.0
  1
264
 41
0.7695
  7
FontTableH_0
 72
     5
 11
289.705188
 21
202.861757
 31
0.0
100
AcDbText
  0
TEXT
  5
130
100
AcDbEntity
  8
0
 62
     7
100
AcDbText
 10
296.455188
 20
202.861757
 30
0.0
 40
3.0
  1
12-10
 41
0.7695
  7
FontTableH_0
 72
     5
 11
307.705188
 21
202.861757
 31
0.0
100
AcDbText
  0
TEXT
  5
131
100
AcDbEntity
  8
0
 62
     7
100
AcDbText
 10
312.955188
 20
202.861757
 30
0.0
 40
3.0
  1
206
 41
0.7695
  7
FontTableH_0
 72
     5
 11
319.705188
 21
202.861757
 31
0.0
100
AcDbText
  0
TEXT
  5
132
100
AcDbEntity
  8
0
 62
     7
100
AcDbText
 10
327.455188
 20
202.861757
 30
0.0
 40
3.0
  1
8-10
 41
0.7695
  7
FontTableH_0
 72
     5
 11
336.455188
 21
202.861757
 31
0.0
100
AcDbText
  0
TEXT
  5
133
100
AcDbEntity
  8
0
 62
     7
100
AcDbText
 10
358.496688
 20
197.439337
 30
0.0
 40
3.0
  1
22.5
 41
0.7695
  7
FontTableH_0
 72
     5
 11
367.496688
 21
197.439337
 31
0.0
100
AcDbText
  0
TEXT
  5
134
100
AcDbEntity
  8
0
 62
     7
100
AcDbText
 10
267.955188
 20
197.861757
 30
0.0
 40
3.0
  1
100
 41
0.7695
  7
FontTableH_0
 72
     5
 11
274.705188
 21
197.861757
 31
0.0
100
AcDbText
  0
TEXT
  5
135
100
AcDbEntity
  8
0
 62
     7
100
AcDbText
 10
296.455188
 20
197.861757
 30
0.0
 40
3.0
  1
12-10
 41
0.7695
  7
FontTableH_0
 72
     5
 11
307.705188
 21
197.861757
 31
0.0
100
AcDbText
  0
TEXT
  5
136
100
AcDbEntity
  8
0
 62
     7
100
AcDbText
 10
296.455188
 20
192.861757
 30
0.0
 40
3.0
  1
12-10
 41
0.7695
  7
FontTableH_0
 72
     5
 11
307.705188
 21
192.861757
 31
0.0
100
AcDbText
  0
TEXT
  5
137
100
AcDbEntity
  8
0
 62
     7
100
AcDbText
 10
327.455188
 20
192.861757
 30
0.0
 40
3.0
  1
8-10
 41
0.7695
  7
FontTableH_0
 72
     5
 11
336.455188
 21
192.861757
 31
0.0
100
AcDbText
  0
TEXT
  5
138
100
AcDbEntity
  8
0
 62
     7
100
AcDbText
 10
267.955188
 20
187.861757
 30
0.0
 40
3.0
  1
100
 41
0.7695
  7
FontTableH_0
 72
     5
 11
274.705188
 21
187.861757
 31
0.0
100
AcDbText
  0
TEXT
  5
139
100
AcDbEntity
  8
0
 62
     7
100
AcDbText
 10
327.455188
 20
177.861757
 30
0.0
 40
3.0
  1
8-10
 41
0.7695
  7
FontTableH_0
 72
     5
 11
336.455188
 21
177.861757
 31
0.0
100
AcDbText
  0
TEXT
  5
13A
100
AcDbEntity
  8
0
 62
     7
100
AcDbText
 10
267.955188
 20
172.861757
 30
0.0
 40
3.0
  1
100
 41
0.7695
  7
FontTableH_0
 72
     5
 11
274.705188
 21
172.861757
 31
0.0
100
AcDbText
  0
TEXT
  5
13B
100
AcDbEntity
  8
0
 62
     7
100
AcDbText
 10
252.955188
 20
197.861757
 30
0.0
 40
3.0
  1
185
 41
0.7695
  7
FontTableH_0
 72
     5
 11
259.705188
 21
197.861757
 31
0.0
100
AcDbText
  0
TEXT
  5
13C
100
AcDbEntity
  8
0
 62
     7
100
AcDbText
 10
252.955188
 20
192.861757
 30
0.0
 40
3.0
  1
281
 41
0.7695
  7
FontTableH_0
 72
     5
 11
259.705188
 21
192.861757
 31
0.0
100
AcDbText
  0
TEXT
  5
13D
100
AcDbEntity
  8
0
 62
     7
100
AcDbText
 10
267.955188
 20
192.861757
 30
0.0
 40
3.0
  1
200
 41
0.7695
  7
FontTableH_0
 72
     5
 11
274.705188
 21
192.861757
 31
0.0
100
AcDbText
  0
TEXT
  5
13E
100
AcDbEntity
  8
0
 62
     7
100
AcDbText
 10
267.955188
 20
182.861757
 30
0.0
 40
3.0
  1
200
 41
0.7695
  7
FontTableH_0
 72
     5
 11
274.705188
 21
182.861757
 31
0.0
100
AcDbText
  0
TEXT
  5
13F
100
AcDbEntity
  8
0
 62
     7
100
AcDbText
 10
267.955188
 20
177.861757
 30
0.0
 40
3.0
  1
300
 41
0.7695
  7
FontTableH_0
 72
     5
 11
274.705188
 21
177.861757
 31
0.0
100
AcDbText
  0
TEXT
  5
140
100
AcDbEntity
  8
0
 62
     7
100
AcDbText
 10
267.955188
 20
167.861757
 30
0.0
 40
3.0
  1
200
 41
0.7695
  7
FontTableH_0
 72
     5
 11
274.705188
 21
167.861757
 31
0.0
100
AcDbText
  0
TEXT
  5
141
100
AcDbEntity
  8
0
 62
     7
100
AcDbText
 10
267.955188
 20
162.861757
 30
0.0
 40
3.0
  1
300
 41
0.7695
  7
FontTableH_0
 72
     5
 11
274.705188
 21
162.861757
 31
0.0
100
AcDbText
  0
TEXT
  5
142
100
AcDbEntity
  8
0
 62
     7
100
AcDbText
 10
282.955188
 20
197.861757
 30
0.0
 40
3.0
  1
322
 41
0.7695
  7
FontTableH_0
 72
     5
 11
289.705188
 21
197.861757
 31
0.0
100
AcDbText
  0
TEXT
  5
143
100
AcDbEntity
  8
0
 62
     7
100
AcDbText
 10
282.955188
 20
192.861757
 30
0.0
 40
3.0
  1
322
 41
0.7695
  7
FontTableH_0
 72
     5
 11
289.705188
 21
192.861757
 31
0.0
100
AcDbText
  0
TEXT
  5
144
100
AcDbEntity
  8
0
 62
     7
100
AcDbText
 10
282.955188
 20
187.861757
 30
0.0
 40
3.0
  1
382
 41
0.7695
  7
FontTableH_0
 72
     5
 11
289.705188
 21
187.861757
 31
0.0
100
AcDbText
  0
TEXT
  5
145
100
AcDbEntity
  8
0
 62
     7
100
AcDbText
 10
282.955188
 20
182.861757
 30
0.0
 40
3.0
  1
382
 41
0.7695
  7
FontTableH_0
 72
     5
 11
289.705188
 21
182.861757
 31
0.0
100
AcDbText
  0
TEXT
  5
146
100
AcDbEntity
  8
0
 62
     7
100
AcDbText
 10
282.955188
 20
177.861757
 30
0.0
 40
3.0
  1
382
 41
0.7695
  7
FontTableH_0
 72
     5
 11
289.705188
 21
177.861757
 31
0.0
100
AcDbText
  0
TEXT
  5
147
100
AcDbEntity
  8
0
 62
     7
100
AcDbText
 10
282.955188
 20
172.861757
 30
0.0
 40
3.0
  1
432
 41
0.7695
  7
FontTableH_0
 72
     5
 11
289.705188
 21
172.861757
 31
0.0
100
AcDbText
  0
TEXT
  5
148
100
AcDbEntity
  8
0
 62
     7
100
AcDbText
 10
282.955188
 20
167.861757
 30
0.0
 40
3.0
  1
432
 41
0.7695
  7
FontTableH_0
 72
     5
 11
289.705188
 21
167.861757
 31
0.0
100
AcDbText
  0
TEXT
  5
149
100
AcDbEntity
  8
0
 62
     7
100
AcDbText
 10
282.955188
 20
162.861757
 30
0.0
 40
3.0
  1
432
 41
0.7695
  7
FontTableH_0
 72
     5
 11
289.705188
 21
162.861757
 31
0.0
100
AcDbText
  0
TEXT
  5
14A
100
AcDbEntity
  8
0
 62
     7
100
AcDbText
 10
296.455188
 20
187.861757
 30
0.0
 40
3.0
  1
16-12
 41
0.7695
  7
FontTableH_0
 72
     5
 11
307.705188
 21
187.861757
 31
0.0
100
AcDbText
  0
TEXT
  5
14B
100
AcDbEntity
  8
0
 62
     7
100
AcDbText
 10
296.455188
 20
182.861757
 30
0.0
 40
3.0
  1
16-12
 41
0.7695
  7
FontTableH_0
 72
     5
 11
307.705188
 21
182.861757
 31
0.0
100
AcDbText
  0
TEXT
  5
14C
100
AcDbEntity
  8
0
 62
     7
100
AcDbText
 10
296.455188
 20
177.861757
 30
0.0
 40
3.0
  1
16-12
 41
0.7695
  7
FontTableH_0
 72
     5
 11
307.705188
 21
177.861757
 31
0.0
100
AcDbText
  0
TEXT
  5
14D
100
AcDbEntity
  8
0
 62
     7
100
AcDbText
 10
296.455188
 20
172.861757
 30
0.0
 40
3.0
  1
16-12
 41
0.7695
  7
FontTableH_0
 72
     5
 11
307.705188
 21
172.861757
 31
0.0
100
AcDbText
  0
TEXT
  5
14E
100
AcDbEntity
  8
0
 62
     7
100
AcDbText
 10
296.455188
 20
167.861757
 30
0.0
 40
3.0
  1
16-12
 41
0.7695
  7
FontTableH_0
 72
     5
 11
307.705188
 21
167.861757
 31
0.0
100
AcDbText
  0
TEXT
  5
14F
100
AcDbEntity
  8
0
 62
     7
100
AcDbText
 10
296.455188
 20
162.861757
 30
0.0
 40
3.0
  1
16-12
 41
0.7695
  7
FontTableH_0
 72
     5
 11
307.705188
 21
162.861757
 31
0.0
100
AcDbText
  0
TEXT
  5
150
100
AcDbEntity
  8
0
 62
     7
100
AcDbText
 10
312.955188
 20
197.861757
 30
0.0
 40
3.0
  1
264
 41
0.7695
  7
FontTableH_0
 72
     5
 11
319.705188
 21
197.861757
 31
0.0
100
AcDbText
  0
TEXT
  5
151
100
AcDbEntity
  8
0
 62
     7
100
AcDbText
 10
312.955188
 20
192.861757
 30
0.0
 40
3.0
  1
206
 41
0.7695
  7
FontTableH_0
 72
     5
 11
319.705188
 21
192.861757
 31
0.0
100
AcDbText
  0
TEXT
  5
152
100
AcDbEntity
  8
0
 62
     7
100
AcDbText
 10
312.955188
 20
187.861757
 30
0.0
 40
3.0
  1
322
 41
0.7695
  7
FontTableH_0
 72
     5
 11
319.705188
 21
187.861757
 31
0.0
100
AcDbText
  0
TEXT
  5
153
100
AcDbEntity
  8
0
 62
     7
100
AcDbText
 10
312.955188
 20
182.861757
 30
0.0
 40
3.0
  1
264
 41
0.7695
  7
FontTableH_0
 72
     5
 11
319.705188
 21
182.861757
 31
0.0
100
AcDbText
  0
TEXT
  5
154
100
AcDbEntity
  8
0
 62
     7
100
AcDbText
 10
312.955188
 20
177.861757
 30
0.0
 40
3.0
  1
206
 41
0.7695
  7
FontTableH_0
 72
     5
 11
319.705188
 21
177.861757
 31
0.0
100
AcDbText
  0
TEXT
  5
155
100
AcDbEntity
  8
0
 62
     7
100
AcDbText
 10
312.955188
 20
172.861757
 30
0.0
 40
3.0
  1
382
 41
0.7695
  7
FontTableH_0
 72
     5
 11
319.705188
 21
172.861757
 31
0.0
100
AcDbText
  0
TEXT
  5
156
100
AcDbEntity
  8
0
 62
     7
100
AcDbText
 10
312.955188
 20
167.861757
 30
0.0
 40
3.0
  1
322
 41
0.7695
  7
FontTableH_0
 72
     5
 11
319.705188
 21
167.861757
 31
0.0
100
AcDbText
  0
TEXT
  5
157
100
AcDbEntity
  8
0
 62
     7
100
AcDbText
 10
312.955188
 20
162.861757
 30
0.0
 40
3.0
  1
264
 41
0.7695
  7
FontTableH_0
 72
     5
 11
319.705188
 21
162.861757
 31
0.0
100
AcDbText
  0
TEXT
  5
158
100
AcDbEntity
  8
0
 62
     7
100
AcDbText
 10
326.455188
 20
197.861757
 30
0.0
 40
3.0
  1
12-10
 41
0.7695
  7
FontTableH_0
 72
     5
 11
337.705188
 21
197.861757
 31
0.0
100
AcDbText
  0
TEXT
  5
159
100
AcDbEntity
  8
0
 62
     7
100
AcDbText
 10
326.455188
 20
187.861757
 30
0.0
 40
3.0
  1
12-10
 41
0.7695
  7
FontTableH_0
 72
     5
 11
337.705188
 21
187.861757
 31
0.0
100
AcDbText
  0
TEXT
  5
15A
100
AcDbEntity
  8
0
 62
     7
100
AcDbText
 10
326.455188
 20
182.861757
 30
0.0
 40
3.0
  1
12-10
 41
0.7695
  7
FontTableH_0
 72
     5
 11
337.705188
 21
182.861757
 31
0.0
100
AcDbText
  0
TEXT
  5
15B
100
AcDbEntity
  8
0
 62
     7
100
AcDbText
 10
326.455188
 20
172.861757
 30
0.0
 40
3.0
  1
16-12
 41
0.7695
  7
FontTableH_0
 72
     5
 11
337.705188
 21
172.861757
 31
0.0
100
AcDbText
  0
TEXT
  5
15C
100
AcDbEntity
  8
0
 62
     7
100
AcDbText
 10
326.455188
 20
167.861757
 30
0.0
 40
3.0
  1
12-10
 41
0.7695
  7
FontTableH_0
 72
     5
 11
337.705188
 21
167.861757
 31
0.0
100
AcDbText
  0
TEXT
  5
15D
100
AcDbEntity
  8
0
 62
     7
100
AcDbText
 10
326.455188
 20
162.861757
 30
0.0
 40
3.0
  1
12-10
 41
0.7695
  7
FontTableH_0
 72
     5
 11
337.705188
 21
162.861757
 31
0.0
100
AcDbText
  0
TEXT
  5
15E
100
AcDbEntity
  8
0
 62
     7
100
AcDbText
 10
358.496688
 20
192.439337
 30
0.0
 40
3.0
  1
51
 41
0.7695
  7
FontTableH_0
 72
     5
 11
362.996688
 21
192.439337
 31
0.0
100
AcDbText
  0
TEXT
  5
15F
100
AcDbEntity
  8
0
 62
     7
100
AcDbText
 10
358.496688
 20
187.439337
 30
0.0
 40
3.0
  1
25.5
 41
0.7695
  7
FontTableH_0
 72
     5
 11
367.496688
 21
187.439337
 31
0.0
100
AcDbText
  0
TEXT
  5
160
100
AcDbEntity
  8
0
 62
     7
100
AcDbText
 10
358.496688
 20
182.439337
 30
0.0
 40
3.0
  1
51
 41
0.7695
  7
FontTableH_0
 72
     5
 11
362.996688
 21
182.439337
 31
0.0
100
AcDbText
  0
TEXT
  5
161
100
AcDbEntity
  8
0
 62
     7
100
AcDbText
 10
358.496688
 20
177.439337
 30
0.0
 40
3.0
  1
76.5
 41
0.7695
  7
FontTableH_0
 72
     5
 11
367.496688
 21
177.439337
 31
0.0
100
AcDbText
  0
TEXT
  5
162
100
AcDbEntity
  8
0
 62
     7
100
AcDbText
 10
358.496688
 20
172.439337
 30
0.0
 40
3.0
  1
26
 41
0.7695
  7
FontTableH_0
 72
     5
 11
362.996688
 21
172.439337
 31
0.0
100
AcDbText
  0
TEXT
  5
163
100
AcDbEntity
  8
0
 62
     7
100
AcDbText
 10
358.496688
 20
167.439337
 30
0.0
 40
3.0
  1
51.5
 41
0.7695
  7
FontTableH_0
 72
     5
 11
367.496688
 21
167.439337
 31
0.0
100
AcDbText
  0
TEXT
  5
164
100
AcDbEntity
  8
0
 62
     7
100
AcDbText
 10
358.496688
 20
162.439337
 30
0.0
 40
3.0
  1
77
 41
0.7695
  7
FontTableH_0
 72
     5
 11
362.996688
 21
162.439337
 31
0.0
100
AcDbText
  0
TEXT
  5
165
100
AcDbEntity
  8
0
 62
     7
100
AcDbText
 10
267.955188
 20
157.433757
 30
0.0
 40
3.0
  1
100
 41
0.7695
  7
FontTableH_0
 72
     5
 11
274.705188
 21
157.433757
 31
0.0
100
AcDbText
  0
TEXT
  5
166
100
AcDbEntity
  8
0
 62
     7
100
AcDbText
 10
267.955188
 20
152.433757
 30
0.0
 40
3.0
  1
200
 41
0.7695
  7
FontTableH_0
 72
     5
 11
274.705188
 21
152.433757
 31
0.0
100
AcDbText
  0
TEXT
  5
167
100
AcDbEntity
  8
0
 62
     7
100
AcDbText
 10
267.955188
 20
147.433757
 30
0.0
 40
3.0
  1
300
 41
0.7695
  7
FontTableH_0
 72
     5
 11
274.705188
 21
147.433757
 31
0.0
100
AcDbText
  0
TEXT
  5
168
100
AcDbEntity
  8
0
 62
     7
100
AcDbText
 10
282.955188
 20
157.433757
 30
0.0
 40
3.0
  1
482
 41
0.7695
  7
FontTableH_0
 72
     5
 11
289.705188
 21
157.433757
 31
0.0
100
AcDbText
  0
TEXT
  5
169
100
AcDbEntity
  8
0
 62
     7
100
AcDbText
 10
282.955188
 20
152.433757
 30
0.0
 40
3.0
  1
482
 41
0.7695
  7
FontTableH_0
 72
     5
 11
289.705188
 21
152.433757
 31
0.0
100
AcDbText
  0
TEXT
  5
16A
100
AcDbEntity
  8
0
 62
     7
100
AcDbText
 10
282.955188
 20
147.433757
 30
0.0
 40
3.0
  1
482
 41
0.7695
  7
FontTableH_0
 72
     5
 11
289.705188
 21
147.433757
 31
0.0
100
AcDbText
  0
TEXT
  5
16B
100
AcDbEntity
  8
0
 62
     7
100
AcDbText
 10
296.455188
 20
157.433757
 30
0.0
 40
3.0
  1
20-14
 41
0.7695
  7
FontTableH_0
 72
     5
 11
307.705188
 21
157.433757
 31
0.0
100
AcDbText
  0
TEXT
  5
16C
100
AcDbEntity
  8
0
 62
     7
100
AcDbText
 10
296.455188
 20
152.433757
 30
0.0
 40
3.0
  1
20-14
 41
0.7695
  7
FontTableH_0
 72
     5
 11
307.705188
 21
152.433757
 31
0.0
100
AcDbText
  0
TEXT
  5
16D
100
AcDbEntity
  8
0
 62
     7
100
AcDbText
 10
296.455188
 20
147.433757
 30
0.0
 40
3.0
  1
20-14
 41
0.7695
  7
FontTableH_0
 72
     5
 11
307.705188
 21
147.433757
 31
0.0
100
AcDbText
  0
TEXT
  5
16E
100
AcDbEntity
  8
0
 62
     7
100
AcDbText
 10
312.955188
 20
157.433757
 30
0.0
 40
3.0
  1
432
 41
0.7695
  7
FontTableH_0
 72
     5
 11
319.705188
 21
157.433757
 31
0.0
100
AcDbText
  0
TEXT
  5
16F
100
AcDbEntity
  8
0
 62
     7
100
AcDbText
 10
312.955188
 20
152.433757
 30
0.0
 40
3.0
  1
382
 41
0.7695
  7
FontTableH_0
 72
     5
 11
319.705188
 21
152.433757
 31
0.0
100
AcDbText
  0
TEXT
  5
170
100
AcDbEntity
  8
0
 62
     7
100
AcDbText
 10
312.955188
 20
147.433757
 30
0.0
 40
3.0
  1
322
 41
0.7695
  7
FontTableH_0
 72
     5
 11
319.705188
 21
147.433757
 31
0.0
100
AcDbText
  0
TEXT
  5
171
100
AcDbEntity
  8
0
 62
     7
100
AcDbText
 10
326.455188
 20
157.433757
 30
0.0
 40
3.0
  1
16-12
 41
0.7695
  7
FontTableH_0
 72
     5
 11
337.705188
 21
157.433757
 31
0.0
100
AcDbText
  0
TEXT
  5
172
100
AcDbEntity
  8
0
 62
     7
100
AcDbText
 10
326.455188
 20
152.433757
 30
0.0
 40
3.0
  1
16-12
 41
0.7695
  7
FontTableH_0
 72
     5
 11
337.705188
 21
152.433757
 31
0.0
100
AcDbText
  0
TEXT
  5
173
100
AcDbEntity
  8
0
 62
     7
100
AcDbText
 10
326.455188
 20
147.433757
 30
0.0
 40
3.0
  1
12-10
 41
0.7695
  7
FontTableH_0
 72
     5
 11
337.705188
 21
147.433757
 31
0.0
100
AcDbText
  0
TEXT
  5
174
100
AcDbEntity
  8
0
 62
     7
100
AcDbText
 10
342.955188
 20
157.433757
 30
0.0
 40
3.0
  1
4.0
 41
0.7695
  7
FontTableH_0
 72
     5
 11
349.705188
 21
157.433757
 31
0.0
100
AcDbText
  0
TEXT
  5
175
100
AcDbEntity
  8
0
 62
     7
100
AcDbText
 10
342.955188
 20
152.433757
 30
0.0
 40
3.0
  1
4.0
 41
0.7695
  7
FontTableH_0
 72
     5
 11
349.705188
 21
152.433757
 31
0.0
100
AcDbText
  0
TEXT
  5
176
100
AcDbEntity
  8
0
 62
     7
100
AcDbText
 10
342.955188
 20
147.433757
 30
0.0
 40
3.0
  1
4.0
 41
0.7695
  7
FontTableH_0
 72
     5
 11
349.705188
 21
147.433757
 31
0.0
100
AcDbText
  0
TEXT
  5
177
100
AcDbEntity
  8
0
 62
     7
100
AcDbText
 10
358.496688
 20
157.011337
 30
0.0
 40
3.0
  1
25
 41
0.7695
  7
FontTableH_0
 72
     5
 11
362.996688
 21
157.011337
 31
0.0
100
AcDbText
  0
TEXT
  5
178
100
AcDbEntity
  8
0
 62
     7
100
AcDbText
 10
358.496688
 20
152.011337
 30
0.0
 40
3.0
  1
51
 41
0.7695
  7
FontTableH_0
 72
     5
 11
362.996688
 21
152.011337
 31
0.0
100
AcDbText
  0
TEXT
  5
179
100
AcDbEntity
  8
0
 62
     7
100
AcDbText
 10
358.496688
 20
147.011337
 30
0.0
 40
3.0
  1
76.5
 41
0.7695
  7
FontTableH_0
 72
     5
 11
367.496688
 21
147.011337
 31
0.0
100
AcDbText
  0
TEXT
  5
17A
100
AcDbEntity
  8
0
 62
     7
100
AcDbText
 10
267.955188
 20
142.433757
 30
0.0
 40
3.0
  1
100
 41
0.7695
  7
FontTableH_0
 72
     5
 11
274.705188
 21
142.433757
 31
0.0
100
AcDbText
  0
TEXT
  5
17B
100
AcDbEntity
  8
0
 62
     7
100
AcDbText
 10
267.955188
 20
137.433764
 30
0.0
 40
3.0
  1
200
 41
0.7695
  7
FontTableH_0
 72
     5
 11
274.705188
 21
137.433764
 31
0.0
100
AcDbText
  0
TEXT
  5
17C
100
AcDbEntity
  8
0
 62
     7
100
AcDbText
 10
267.955188
 20
132.433764
 30
0.0
 40
3.0
  1
300
 41
0.7695
  7
FontTableH_0
 72
     5
 11
274.705188
 21
132.433764
 31
0.0
100
AcDbText
  0
TEXT
  5
17D
100
AcDbEntity
  8
0
 62
     7
100
AcDbText
 10
282.955188
 20
142.433757
 30
0.0
 40
3.0
  1
540
 41
0.7695
  7
FontTableH_0
 72
     5
 11
289.705188
 21
142.433757
 31
0.0
100
AcDbText
  0
TEXT
  5
17E
100
AcDbEntity
  8
0
 62
     7
100
AcDbText
 10
282.955188
 20
137.433764
 30
0.0
 40
3.0
  1
540
 41
0.7695
  7
FontTableH_0
 72
     5
 11
289.705188
 21
137.433764
 31
0.0
100
AcDbText
  0
TEXT
  5
17F
100
AcDbEntity
  8
0
 62
     7
100
AcDbText
 10
282.955188
 20
132.433764
 30
0.0
 40
3.0
  1
540
 41
0.7695
  7
FontTableH_0
 72
     5
 11
289.705188
 21
132.433764
 31
0.0
100
AcDbText
  0
TEXT
  5
180
100
AcDbEntity
  8
0
 62
     7
100
AcDbText
 10
296.455188
 20
142.433757
 30
0.0
 40
3.0
  1
24-14
 41
0.7695
  7
FontTableH_0
 72
     5
 11
307.705188
 21
142.433757
 31
0.0
100
AcDbText
  0
TEXT
  5
181
100
AcDbEntity
  8
0
 62
     7
100
AcDbText
 10
296.455188
 20
137.433764
 30
0.0
 40
3.0
  1
24-14
 41
0.7695
  7
FontTableH_0
 72
     5
 11
307.705188
 21
137.433764
 31
0.0
100
AcDbText
  0
TEXT
  5
182
100
AcDbEntity
  8
0
 62
     7
100
AcDbText
 10
296.455188
 20
132.433764
 30
0.0
 40
3.0
  1
24-14
 41
0.7695
  7
FontTableH_0
 72
     5
 11
307.705188
 21
132.433764
 31
0.0
100
AcDbText
  0
TEXT
  5
183
100
AcDbEntity
  8
0
 62
     7
100
AcDbText
 10
312.955188
 20
142.433757
 30
0.0
 40
3.0
  1
482
 41
0.7695
  7
FontTableH_0
 72
     5
 11
319.705188
 21
142.433757
 31
0.0
100
AcDbText
  0
TEXT
  5
184
100
AcDbEntity
  8
0
 62
     7
100
AcDbText
 10
312.955188
 20
137.433764
 30
0.0
 40
3.0
  1
432
 41
0.7695
  7
FontTableH_0
 72
     5
 11
319.705188
 21
137.433764
 31
0.0
100
AcDbText
  0
TEXT
  5
185
100
AcDbEntity
  8
0
 62
     7
100
AcDbText
 10
312.955188
 20
132.433764
 30
0.0
 40
3.0
  1
382
 41
0.7695
  7
FontTableH_0
 72
     5
 11
319.705188
 21
132.433764
 31
0.0
100
AcDbText
  0
TEXT
  5
186
100
AcDbEntity
  8
0
 62
     7
100
AcDbText
 10
326.455188
 20
142.433757
 30
0.0
 40
3.0
  1
20-14
 41
0.7695
  7
FontTableH_0
 72
     5
 11
337.705188
 21
142.433757
 31
0.0
100
AcDbText
  0
TEXT
  5
187
100
AcDbEntity
  8
0
 62
     7
100
AcDbText
 10
326.455188
 20
137.433764
 30
0.0
 40
3.0
  1
16-12
 41
0.7695
  7
FontTableH_0
 72
     5
 11
337.705188
 21
137.433764
 31
0.0
100
AcDbText
  0
TEXT
  5
188
100
AcDbEntity
  8
0
 62
     7
100
AcDbText
 10
326.455188
 20
132.433764
 30
0.0
 40
3.0
  1
16-12
 41
0.7695
  7
FontTableH_0
 72
     5
 11
337.705188
 21
132.433764
 31
0.0
100
AcDbText
  0
TEXT
  5
189
100
AcDbEntity
  8
0
 62
     7
100
AcDbText
 10
358.496688
 20
142.011337
 30
0.0
 40
3.0
  1
25
 41
0.7695
  7
FontTableH_0
 72
     5
 11
362.996688
 21
142.011337
 31
0.0
100
AcDbText
  0
TEXT
  5
18A
100
AcDbEntity
  8
0
 62
     7
100
AcDbText
 10
358.496688
 20
137.011338
 30
0.0
 40
3.0
  1
50
 41
0.7695
  7
FontTableH_0
 72
     5
 11
362.996688
 21
137.011338
 31
0.0
100
AcDbText
  0
TEXT
  5
18B
100
AcDbEntity
  8
0
 62
     7
100
AcDbText
 10
358.496688
 20
132.011338
 30
0.0
 40
3.0
  1
76
 41
0.7695
  7
FontTableH_0
 72
     5
 11
362.996688
 21
132.011338
 31
0.0
100
AcDbText
  0
TEXT
  5
18C
100
AcDbEntity
  8
0
 62
     7
100
AcDbText
 10
267.955188
 20
127.433764
 30
0.0
 40
3.0
  1
100
 41
0.7695
  7
FontTableH_0
 72
     5
 11
274.705188
 21
127.433764
 31
0.0
100
AcDbText
  0
TEXT
  5
18D
100
AcDbEntity
  8
0
 62
     7
100
AcDbText
 10
267.955188
 20
122.433764
 30
0.0
 40
3.0
  1
200
 41
0.7695
  7
FontTableH_0
 72
     5
 11
274.705188
 21
122.433764
 31
0.0
100
AcDbText
  0
TEXT
  5
18E
100
AcDbEntity
  8
0
 62
     7
100
AcDbText
 10
267.955188
 20
117.433764
 30
0.0
 40
3.0
  1
300
 41
0.7695
  7
FontTableH_0
 72
     5
 11
274.705188
 21
117.433764
 31
0.0
100
AcDbText
  0
TEXT
  5
18F
100
AcDbEntity
  8
0
 62
     7
100
AcDbText
 10
267.955188
 20
112.433764
 30
0.0
 40
3.0
  1
400
 41
0.7695
  7
FontTableH_0
 72
     5
 11
274.705188
 21
112.433764
 31
0.0
100
AcDbText
  0
TEXT
  5
190
100
AcDbEntity
  8
0
 62
     7
100
AcDbText
 10
282.955188
 20
127.433764
 30
0.0
 40
3.0
  1
590
 41
0.7695
  7
FontTableH_0
 72
     5
 11
289.705188
 21
127.433764
 31
0.0
100
AcDbText
  0
TEXT
  5
191
100
AcDbEntity
  8
0
 62
     7
100
AcDbText
 10
282.955188
 20
122.433764
 30
0.0
 40
3.0
  1
590
 41
0.7695
  7
FontTableH_0
 72
     5
 11
289.705188
 21
122.433764
 31
0.0
100
AcDbText
  0
TEXT
  5
192
100
AcDbEntity
  8
0
 62
     7
100
AcDbText
 10
282.955188
 20
117.433764
 30
0.0
 40
3.0
  1
590
 41
0.7695
  7
FontTableH_0
 72
     5
 11
289.705188
 21
117.433764
 31
0.0
100
AcDbText
  0
TEXT
  5
193
100
AcDbEntity
  8
0
 62
     7
100
AcDbText
 10
282.955188
 20
112.433764
 30
0.0
 40
3.0
  1
590
 41
0.7695
  7
FontTableH_0
 72
     5
 11
289.705188
 21
112.433764
 31
0.0
100
AcDbText
  0
TEXT
  5
194
100
AcDbEntity
  8
0
 62
     7
100
AcDbText
 10
296.455188
 20
127.433764
 30
0.0
 40
3.0
  1
24-14
 41
0.7695
  7
FontTableH_0
 72
     5
 11
307.705188
 21
127.433764
 31
0.0
100
AcDbText
  0
TEXT
  5
195
100
AcDbEntity
  8
0
 62
     7
100
AcDbText
 10
296.455188
 20
122.433764
 30
0.0
 40
3.0
  1
24-14
 41
0.7695
  7
FontTableH_0
 72
     5
 11
307.705188
 21
122.433764
 31
0.0
100
AcDbText
  0
TEXT
  5
196
100
AcDbEntity
  8
0
 62
     7
100
AcDbText
 10
296.455188
 20
117.433764
 30
0.0
 40
3.0
  1
24-14
 41
0.7695
  7
FontTableH_0
 72
     5
 11
307.705188
 21
117.433764
 31
0.0
100
AcDbText
  0
TEXT
  5
197
100
AcDbEntity
  8
0
 62
     7
100
AcDbText
 10
296.455188
 20
112.433764
 30
0.0
 40
3.0
  1
24-14
 41
0.7695
  7
FontTableH_0
 72
     5
 11
307.705188
 21
112.433764
 31
0.0
100
AcDbText
  0
TEXT
  5
198
100
AcDbEntity
  8
0
 62
     7
100
AcDbText
 10
312.955188
 20
127.433764
 30
0.0
 40
3.0
  1
540
 41
0.7695
  7
FontTableH_0
 72
     5
 11
319.705188
 21
127.433764
 31
0.0
100
AcDbText
  0
TEXT
  5
199
100
AcDbEntity
  8
0
 62
     7
100
AcDbText
 10
312.955188
 20
122.433764
 30
0.0
 40
3.0
  1
482
 41
0.7695
  7
FontTableH_0
 72
     5
 11
319.705188
 21
122.433764
 31
0.0
100
AcDbText
  0
TEXT
  5
19A
100
AcDbEntity
  8
0
 62
     7
100
AcDbText
 10
312.955188
 20
117.433764
 30
0.0
 40
3.0
  1
432
 41
0.7695
  7
FontTableH_0
 72
     5
 11
319.705188
 21
117.433764
 31
0.0
100
AcDbText
  0
TEXT
  5
19B
100
AcDbEntity
  8
0
 62
     7
100
AcDbText
 10
312.955188
 20
112.433764
 30
0.0
 40
3.0
  1
382
 41
0.7695
  7
FontTableH_0
 72
     5
 11
319.705188
 21
112.433764
 31
0.0
100
AcDbText
  0
TEXT
  5
19C
100
AcDbEntity
  8
0
 62
     7
100
AcDbText
 10
326.455188
 20
127.433764
 30
0.0
 40
3.0
  1
24-14
 41
0.7695
  7
FontTableH_0
 72
     5
 11
337.705188
 21
127.433764
 31
0.0
100
AcDbText
  0
TEXT
  5
19D
100
AcDbEntity
  8
0
 62
     7
100
AcDbText
 10
326.455188
 20
122.433764
 30
0.0
 40
3.0
  1
20-14
 41
0.7695
  7
FontTableH_0
 72
     5
 11
337.705188
 21
122.433764
 31
0.0
100
AcDbText
  0
TEXT
  5
19E
100
AcDbEntity
  8
0
 62
     7
100
AcDbText
 10
326.455188
 20
117.433764
 30
0.0
 40
3.0
  1
16-12
 41
0.7695
  7
FontTableH_0
 72
     5
 11
337.705188
 21
117.433764
 31
0.0
100
AcDbText
  0
TEXT
  5
19F
100
AcDbEntity
  8
0
 62
     7
100
AcDbText
 10
326.455188
 20
112.433764
 30
0.0
 40
3.0
  1
16-12
 41
0.7695
  7
FontTableH_0
 72
     5
 11
337.705188
 21
112.433764
 31
0.0
100
AcDbText
  0
TEXT
  5
1A0
100
AcDbEntity
  8
0
 62
     7
100
AcDbText
 10
342.955188
 20
127.433764
 30
0.0
 40
3.0
  1
5.0
 41
0.7695
  7
FontTableH_0
 72
     5
 11
349.705188
 21
127.433764
 31
0.0
100
AcDbText
  0
TEXT
  5
1A1
100
AcDbEntity
  8
0
 62
     7
100
AcDbText
 10
342.955188
 20
122.433764
 30
0.0
 40
3.0
  1
5.0
 41
0.7695
  7
FontTableH_0
 72
     5
 11
349.705188
 21
122.433764
 31
0.0
100
AcDbText
  0
TEXT
  5
1A2
100
AcDbEntity
  8
0
 62
     7
100
AcDbText
 10
342.955188
 20
117.433764
 30
0.0
 40
3.0
  1
5.0
 41
0.7695
  7
FontTableH_0
 72
     5
 11
349.705188
 21
117.433764
 31
0.0
100
AcDbText
  0
TEXT
  5
1A3
100
AcDbEntity
  8
0
 62
     7
100
AcDbText
 10
342.955188
 20
112.433764
 30
0.0
 40
3.0
  1
5.0
 41
0.7695
  7
FontTableH_0
 72
     5
 11
349.705188
 21
112.433764
 31
0.0
100
AcDbText
  0
TEXT
  5
1A4
100
AcDbEntity
  8
0
 62
     7
100
AcDbText
 10
358.496688
 20
127.011338
 30
0.0
 40
3.0
  1
25
 41
0.7695
  7
FontTableH_0
 72
     5
 11
362.996688
 21
127.011338
 31
0.0
100
AcDbText
  0
TEXT
  5
1A5
100
AcDbEntity
  8
0
 62
     7
100
AcDbText
 10
358.496688
 20
122.011338
 30
0.0
 40
3.0
  1
50
 41
0.7695
  7
FontTableH_0
 72
     5
 11
362.996688
 21
122.011338
 31
0.0
100
AcDbText
  0
TEXT
  5
1A6
100
AcDbEntity
  8
0
 62
     7
100
AcDbText
 10
358.496688
 20
117.011338
 30
0.0
 40
3.0
  1
75
 41
0.7695
  7
FontTableH_0
 72
     5
 11
362.996688
 21
117.011338
 31
0.0
100
AcDbText
  0
TEXT
  5
1A7
100
AcDbEntity
  8
0
 62
     7
100
AcDbText
 10
358.496688
 20
112.011338
 30
0.0
 40
3.0
  1
101
 41
0.7695
  7
FontTableH_0
 72
     5
 11
365.246688
 21
112.011338
 31
0.0
100
AcDbText
  0
TEXT
  5
1A8
100
AcDbEntity
  8
0
 62
     7
100
AcDbText
 10
252.955188
 20
127.433764
 30
0.0
 40
3.0
  1
214
 41
0.7695
  7
FontTableH_0
 72
     5
 11
259.705188
 21
127.433764
 31
0.0
100
AcDbText
  0
TEXT
  5
1A9
100
AcDbEntity
  8
0
 62
     7
100
AcDbText
 10
252.955188
 20
122.433764
 30
0.0
 40
3.0
  1
311
 41
0.7695
  7
FontTableH_0
 72
     5
 11
259.705188
 21
122.433764
 31
0.0
100
AcDbText
  0
TEXT
  5
1AA
100
AcDbEntity
  8
0
 62
     7
100
AcDbText
 10
252.955188
 20
102.433764
 30
0.0
 40
3.0
  1
405
 41
0.7695
  7
FontTableH_0
 72
     5
 11
259.705188
 21
102.433764
 31
0.0
100
AcDbText
  0
TEXT
  5
1AB
100
AcDbEntity
  8
0
 62
     7
100
AcDbText
 10
252.955188
 20
97.433764
 30
0.0
 40
3.0
  1
502
 41
0.7695
  7
FontTableH_0
 72
     5
 11
259.705188
 21
97.433764
 31
0.0
100
AcDbText
  0
TEXT
  5
1AC
100
AcDbEntity
  8
0
 62
     7
100
AcDbText
 10
267.955188
 20
107.433764
 30
0.0
 40
3.0
  1
200
 41
0.7695
  7
FontTableH_0
 72
     5
 11
274.705188
 21
107.433764
 31
0.0
100
AcDbText
  0
TEXT
  5
1AD
100
AcDbEntity
  8
0
 62
     7
100
AcDbText
 10
267.955188
 20
102.433764
 30
0.0
 40
3.0
  1
300
 41
0.7695
  7
FontTableH_0
 72
     5
 11
274.705188
 21
102.433764
 31
0.0
100
AcDbText
  0
TEXT
  5
1AE
100
AcDbEntity
  8
0
 62
     7
100
AcDbText
 10
267.955188
 20
97.433764
 30
0.0
 40
3.0
  1
400
 41
0.7695
  7
FontTableH_0
 72
     5
 11
274.705188
 21
97.433764
 31
0.0
100
AcDbText
  0
TEXT
  5
1AF
100
AcDbEntity
  8
0
 62
     7
100
AcDbText
 10
267.955188
 20
92.433764
 30
0.0
 40
3.0
  1
500
 41
0.7695
  7
FontTableH_0
 72
     5
 11
274.705188
 21
92.433764
 31
0.0
100
AcDbText
  0
TEXT
  5
1B0
100
AcDbEntity
  8
0
 62
     7
100
AcDbText
 10
282.955188
 20
107.433764
 30
0.0
 40
3.0
  1
672
 41
0.7695
  7
FontTableH_0
 72
     5
 11
289.705188
 21
107.433764
 31
0.0
100
AcDbText
  0
TEXT
  5
1B1
100
AcDbEntity
  8
0
 62
     7
100
AcDbText
 10
282.955188
 20
102.433764
 30
0.0
 40
3.0
  1
672
 41
0.7695
  7
FontTableH_0
 72
     5
 11
289.705188
 21
102.433764
 31
0.0
100
AcDbText
  0
TEXT
  5
1B2
100
AcDbEntity
  8
0
 62
     7
100
AcDbText
 10
282.955188
 20
97.433764
 30
0.0
 40
3.0
  1
672
 41
0.7695
  7
FontTableH_0
 72
     5
 11
289.705188
 21
97.433764
 31
0.0
100
AcDbText
  0
TEXT
  5
1B3
100
AcDbEntity
  8
0
 62
     7
100
AcDbText
 10
282.955188
 20
92.433764
 30
0.0
 40
3.0
  1
672
 41
0.7695
  7
FontTableH_0
 72
     5
 11
289.705188
 21
92.433764
 31
0.0
100
AcDbText
  0
TEXT
  5
1B4
100
AcDbEntity
  8
0
 62
     7
100
AcDbText
 10
312.955188
 20
107.433764
 30
0.0
 40
3.0
  1
590
 41
0.7695
  7
FontTableH_0
 72
     5
 11
319.705188
 21
107.433764
 31
0.0
100
AcDbText
  0
TEXT
  5
1B5
100
AcDbEntity
  8
0
 62
     7
100
AcDbText
 10
312.955188
 20
102.433764
 30
0.0
 40
3.0
  1
540
 41
0.7695
  7
FontTableH_0
 72
     5
 11
319.705188
 21
102.433764
 31
0.0
100
AcDbText
  0
TEXT
  5
1B6
100
AcDbEntity
  8
0
 62
     7
100
AcDbText
 10
312.955188
 20
97.433764
 30
0.0
 40
3.0
  1
482
 41
0.7695
  7
FontTableH_0
 72
     5
 11
319.705188
 21
97.433764
 31
0.0
100
AcDbText
  0
TEXT
  5
1B7
100
AcDbEntity
  8
0
 62
     7
100
AcDbText
 10
312.955188
 20
92.433764
 30
0.0
 40
3.0
  1
432
 41
0.7695
  7
FontTableH_0
 72
     5
 11
319.705188
 21
92.433764
 31
0.0
100
AcDbText
  0
TEXT
  5
1B8
100
AcDbEntity
  8
0
 62
     7
100
AcDbText
 10
326.455188
 20
107.433764
 30
0.0
 40
3.0
  1
24-14
 41
0.7695
  7
FontTableH_0
 72
     5
 11
337.705188
 21
107.433764
 31
0.0
100
AcDbText
  0
TEXT
  5
1B9
100
AcDbEntity
  8
0
 62
     7
100
AcDbText
 10
326.455188
 20
102.433764
 30
0.0
 40
3.0
  1
24-14
 41
0.7695
  7
FontTableH_0
 72
     5
 11
337.705188
 21
102.433764
 31
0.0
100
AcDbText
  0
TEXT
  5
1BA
100
AcDbEntity
  8
0
 62
     7
100
AcDbText
 10
326.455188
 20
97.433764
 30
0.0
 40
3.0
  1
20-14
 41
0.7695
  7
FontTableH_0
 72
     5
 11
337.705188
 21
97.433764
 31
0.0
100
AcDbText
  0
TEXT
  5
1BB
100
AcDbEntity
  8
0
 62
     7
100
AcDbText
 10
326.455188
 20
92.433764
 30
0.0
 40
3.0
  1
16-12
 41
0.7695
  7
FontTableH_0
 72
     5
 11
337.705188
 21
92.433764
 31
0.0
100
AcDbText
  0
TEXT
  5
1BC
100
AcDbEntity
  8
0
 62
     7
100
AcDbText
 10
252.955188
 20
107.433764
 30
0.0
 40
3.0
  1
309
 41
0.7695
  7
FontTableH_0
 72
     5
 11
259.705188
 21
107.433764
 31
0.0
100
AcDbText
  0
TEXT
  5
1BD
100
AcDbEntity
  8
0
 62
     7
100
AcDbText
 10
252.955188
 20
187.861757
 30
0.0
 40
3.0
  1
187
 41
0.7695
  7
FontTableH_0
 72
     5
 11
259.705188
 21
187.861757
 31
0.0
100
AcDbText
  0
TEXT
  5
1BE
100
AcDbEntity
  8
0
 62
     7
100
AcDbText
 10
252.955188
 20
182.861757
 30
0.0
 40
3.0
  1
286
 41
0.7695
  7
FontTableH_0
 72
     5
 11
259.705188
 21
182.861757
 31
0.0
100
AcDbText
  0
TEXT
  5
1BF
100
AcDbEntity
  8
0
 62
     7
100
AcDbText
 10
252.955188
 20
177.861757
 30
0.0
 40
3.0
  1
382
 41
0.7695
  7
FontTableH_0
 72
     5
 11
259.705188
 21
177.861757
 31
0.0
100
AcDbText
  0
TEXT
  5
1C0
100
AcDbEntity
  8
0
 62
     7
100
AcDbText
 10
252.955188
 20
167.861757
 30
0.0
 40
3.0
  1
294
 41
0.7695
  7
FontTableH_0
 72
     5
 11
259.705188
 21
167.861757
 31
0.0
100
AcDbText
  0
TEXT
  5
1C1
100
AcDbEntity
  8
0
 62
     7
100
AcDbText
 10
252.955188
 20
162.861757
 30
0.0
 40
3.0
  1
393
 41
0.7695
  7
FontTableH_0
 72
     5
 11
259.705188
 21
162.861757
 31
0.0
100
AcDbText
  0
TEXT
  5
1C2
100
AcDbEntity
  8
0
 62
     7
100
AcDbText
 10
252.955188
 20
157.433757
 30
0.0
 40
3.0
  1
203
 41
0.7695
  7
FontTableH_0
 72
     5
 11
259.705188
 21
157.433757
 31
0.0
100
AcDbText
  0
TEXT
  5
1C3
100
AcDbEntity
  8
0
 62
     7
100
AcDbText
 10
252.955188
 20
152.433757
 30
0.0
 40
3.0
  1
296
 41
0.7695
  7
FontTableH_0
 72
     5
 11
259.705188
 21
152.433757
 31
0.0
100
AcDbText
  0
TEXT
  5
1C4
100
AcDbEntity
  8
0
 62
     7
100
AcDbText
 10
252.955188
 20
147.433757
 30
0.0
 40
3.0
  1
395
 41
0.7695
  7
FontTableH_0
 72
     5
 11
259.705188
 21
147.433757
 31
0.0
100
AcDbText
  0
TEXT
  5
1C5
100
AcDbEntity
  8
0
 62
     7
100
AcDbText
 10
252.955188
 20
142.433757
 30
0.0
 40
3.0
  1
207
 41
0.7695
  7
FontTableH_0
 72
     5
 11
259.705188
 21
142.433757
 31
0.0
100
AcDbText
  0
TEXT
  5
1C6
100
AcDbEntity
  8
0
 62
     7
100
AcDbText
 10
252.955188
 20
137.433764
 30
0.0
 40
3.0
  1
306
 41
0.7695
  7
FontTableH_0
 72
     5
 11
259.705188
 21
137.433764
 31
0.0
100
AcDbText
  0
TEXT
  5
1C7
100
AcDbEntity
  8
0
 62
     7
100
AcDbText
 10
252.955188
 20
132.433764
 30
0.0
 40
3.0
  1
399
 41
0.7695
  7
FontTableH_0
 72
     5
 11
259.705188
 21
132.433764
 31
0.0
100
AcDbText
  0
TEXT
  5
1C8
100
AcDbEntity
  8
0
 62
     7
100
AcDbText
 10
252.955188
 20
117.433764
 30
0.0
 40
3.0
  1
410
 41
0.7695
  7
FontTableH_0
 72
     5
 11
259.705188
 21
117.433764
 31
0.0
100
AcDbText
  0
TEXT
  5
1C9
100
AcDbEntity
  8
0
 62
     7
100
AcDbText
 10
252.955188
 20
112.433764
 30
0.0
 40
3.0
  1
503
 41
0.7695
  7
FontTableH_0
 72
     5
 11
259.705188
 21
112.433764
 31
0.0
100
AcDbText
  0
TEXT
  5
1CA
100
AcDbEntity
  8
0
 62
     7
100
AcDbText
 10
252.955188
 20
92.433764
 30
0.0
 40
3.0
  1
601
 41
0.7695
  7
FontTableH_0
 72
     5
 11
259.705188
 21
92.433764
 31
0.0
100
AcDbText
  0
TEXT
  5
1CB
100
AcDbEntity
  8
0
 62
     7
100
AcDbText
 10
342.955188
 20
202.861757
 30
0.0
 40
3.0
  1
4.0
 41
0.7695
  7
FontTableH_0
 72
     5
 11
349.705188
 21
202.861757
 31
0.0
100
AcDbText
  0
TEXT
  5
1CC
100
AcDbEntity
  8
0
 62
     7
100
AcDbText
 10
342.955188
 20
197.861757
 30
0.0
 40
3.0
  1
4.0
 41
0.7695
  7
FontTableH_0
 72
     5
 11
349.705188
 21
197.861757
 31
0.0
100
AcDbText
  0
TEXT
  5
1CD
100
AcDbEntity
  8
0
 62
     7
100
AcDbText
 10
342.955188
 20
192.861757
 30
0.0
 40
3.0
  1
4.0
 41
0.7695
  7
FontTableH_0
 72
     5
 11
349.705188
 21
192.861757
 31
0.0
100
AcDbText
  0
TEXT
  5
1CE
100
AcDbEntity
  8
0
 62
     7
100
AcDbText
 10
342.955188
 20
187.861757
 30
0.0
 40
3.0
  1
4.0
 41
0.7695
  7
FontTableH_0
 72
     5
 11
349.705188
 21
187.861757
 31
0.0
100
AcDbText
  0
TEXT
  5
1CF
100
AcDbEntity
  8
0
 62
     7
100
AcDbText
 10
342.955188
 20
182.861757
 30
0.0
 40
3.0
  1
4.0
 41
0.7695
  7
FontTableH_0
 72
     5
 11
349.705188
 21
182.861757
 31
0.0
100
AcDbText
  0
TEXT
  5
1D0
100
AcDbEntity
  8
0
 62
     7
100
AcDbText
 10
342.955188
 20
177.861757
 30
0.0
 40
3.0
  1
4.0
 41
0.7695
  7
FontTableH_0
 72
     5
 11
349.705188
 21
177.861757
 31
0.0
100
AcDbText
  0
TEXT
  5
1D1
100
AcDbEntity
  8
0
 62
     7
100
AcDbText
 10
342.955188
 20
172.861757
 30
0.0
 40
3.0
  1
4.0
 41
0.7695
  7
FontTableH_0
 72
     5
 11
349.705188
 21
172.861757
 31
0.0
100
AcDbText
  0
TEXT
  5
1D2
100
AcDbEntity
  8
0
 62
     7
100
AcDbText
 10
342.955188
 20
167.861757
 30
0.0
 40
3.0
  1
4.0
 41
0.7695
  7
FontTableH_0
 72
     5
 11
349.705188
 21
167.861757
 31
0.0
100
AcDbText
  0
TEXT
  5
1D3
100
AcDbEntity
  8
0
 62
     7
100
AcDbText
 10
342.955188
 20
162.861757
 30
0.0
 40
3.0
  1
4.0
 41
0.7695
  7
FontTableH_0
 72
     5
 11
349.705188
 21
162.861757
 31
0.0
100
AcDbText
  0
TEXT
  5
1D4
100
AcDbEntity
  8
0
 62
     7
100
AcDbText
 10
342.955188
 20
142.433757
 30
0.0
 40
3.0
  1
5.0
 41
0.7695
  7
FontTableH_0
 72
     5
 11
349.705188
 21
142.433757
 31
0.0
100
AcDbText
  0
TEXT
  5
1D5
100
AcDbEntity
  8
0
 62
     7
100
AcDbText
 10
342.955188
 20
137.433764
 30
0.0
 40
3.0
  1
5.0
 41
0.7695
  7
FontTableH_0
 72
     5
 11
349.705188
 21
137.433764
 31
0.0
100
AcDbText
  0
TEXT
  5
1D6
100
AcDbEntity
  8
0
 62
     7
100
AcDbText
 10
342.955188
 20
132.433764
 30
0.0
 40
3.0
  1
5.0
 41
0.7695
  7
FontTableH_0
 72
     5
 11
349.705188
 21
132.433764
 31
0.0
100
AcDbText
  0
TEXT
  5
1D7
100
AcDbEntity
  8
0
 62
     7
100
AcDbText
 10
342.955188
 20
107.433764
 30
0.0
 40
3.0
  1
5.0
 41
0.7695
  7
FontTableH_0
 72
     5
 11
349.705188
 21
107.433764
 31
0.0
100
AcDbText
  0
TEXT
  5
1D8
100
AcDbEntity
  8
0
 62
     7
100
AcDbText
 10
342.955188
 20
102.433764
 30
0.0
 40
3.0
  1
5.0
 41
0.7695
  7
FontTableH_0
 72
     5
 11
349.705188
 21
102.433764
 31
0.0
100
AcDbText
  0
TEXT
  5
1D9
100
AcDbEntity
  8
0
 62
     7
100
AcDbText
 10
342.955188
 20
97.433764
 30
0.0
 40
3.0
  1
5.0
 41
0.7695
  7
FontTableH_0
 72
     5
 11
349.705188
 21
97.433764
 31
0.0
100
AcDbText
  0
TEXT
  5
1DA
100
AcDbEntity
  8
0
 62
     7
100
AcDbText
 10
342.955188
 20
92.433764
 30
0.0
 40
3.0
  1
5.0
 41
0.7695
  7
FontTableH_0
 72
     5
 11
349.705188
 21
92.433764
 31
0.0
100
AcDbText
  0
TEXT
  5
1DB
100
AcDbEntity
  8
0
 62
     7
100
AcDbText
 10
252.955188
 20
172.861757
 30
0.0
 40
3.0
  1
195
 41
0.7695
  7
FontTableH_0
 72
     5
 11
259.705188
 21
172.861757
 31
0.0
100
AcDbText
  0
TEXT
  5
1DC
100
AcDbEntity
  8
0
 62
     7
100
AcDbText
 10
296.455188
 20
92.433764
 30
0.0
 40
3.0
  1
24-12
 41
0.7695
  7
FontTableH_0
 72
     5
 11
307.705188
 21
92.433764
 31
0.0
100
AcDbText
  0
TEXT
  5
1DD
100
AcDbEntity
  8
0
 62
     7
100
AcDbText
 10
296.455188
 20
97.433764
 30
0.0
 40
3.0
  1
24-12
 41
0.7695
  7
FontTableH_0
 72
     5
 11
307.705188
 21
97.433764
 31
0.0
100
AcDbText
  0
TEXT
  5
1DE
100
AcDbEntity
  8
0
 62
     7
100
AcDbText
 10
296.455188
 20
102.433764
 30
0.0
 40
3.0
  1
24-12
 41
0.7695
  7
FontTableH_0
 72
     5
 11
307.705188
 21
102.433764
 31
0.0
100
AcDbText
  0
TEXT
  5
1DF
100
AcDbEntity
  8
0
 62
     7
100
AcDbText
 10
296.455188
 20
107.433764
 30
0.0
 40
3.0
  1
24-12
 41
0.7695
  7
FontTableH_0
 72
     5
 11
307.705188
 21
107.433764
 31
0.0
100
AcDbText
  0
ENDSEC
  0
SECTION
  2
OBJECTS
  0
DICTIONARY
  5
19
100
AcDbDictionary
  3
ACAD_GROUP
350
1A
  3
ACAD_MLINESTYLE
350
1B
  3
DWGPROPS
350
1E0
  0
DICTIONARY
  5
1A
102
{ACAD_REACTORS
330
19
102
}
100
AcDbDictionary
  0
DICTIONARY
  5
1B
102
{ACAD_REACTORS
330
19
102
}
100
AcDbDictionary
  3
STANDARD
350
1C
  0
MLINESTYLE
  5
1C
102
{ACAD_REACTORS
330
1B
102
}
100
AcDbMlineStyle
  2
Standard
 70
     0
  3

 62
     0
 51
90.0
 52
90.0
 71
     2
 49
0.5
 62
   256
  6
ByLayer
 49
-0.5
 62
   256
  6
ByLayer
  0
XRECORD
  5
1E0
100
AcDbXrecord
  1
DWGPROPS COOKIE
  2

  3

  4

  6

  7

  0
ENDSEC
  0
EOF
