  0
SECTION
  2
HEADER
  9
$ACADVER
  1
AC1014
  9
$ACADMAINTVER
 70
     0
  9
$DWGCODEPAGE
  3
ANSI_932
  9
$INSBASE
 10
0.0
 20
0.0
 30
0.0
  9
$EXTMIN
 10
0.0
 20
0.0
 30
0.0
  9
$EXTMAX
 10
463.114875
 20
292.814622
 30
0.0
  9
$LIMMIN
 10
0.0
 20
0.0
  9
$LIMMAX
 10
463.114875
 20
292.814622
  9
$ORTHOMODE
 70
     0
  9
$REGENMODE
 70
     1
  9
$FILLMODE
 70
     1
  9
$QTEXTMODE
 70
     0
  9
$MIRRTEXT
 70
     1
  9
$DRAGMODE
 70
     2
  9
$LTSCALE
 40
1.0
  9
$OSMODE
 70
     0
  9
$ATTMODE
 70
     1
  9
$TEXTSIZE
 40
0.2
  9
$TRACEWID
 40
0.05
  9
$TEXTSTYLE
  7
Standard
  9
$CLAYER
  8
0
  9
$CELTYPE
  6
Continuous
  9
$CECOLOR
 62
   256
  9
$CELTSCALE
 40
1.0
  9
$DELOBJ
 70
     1
  9
$DISPSILH
 70
     0
  9
$DIMSCALE
 40
1.0
  9
$DIMASZ
 40
0.18
  9
$DIMEXO
 40
0.0625
  9
$DIMDLI
 40
0.38
  9
$DIMRND
 40
0.0
  9
$DIMDLE
 40
0.0
  9
$DIMEXE
 40
0.18
  9
$DIMTP
 40
0.0
  9
$DIMTM
 40
0.0
  9
$DIMTXT
 40
0.18
  9
$DIMCEN
 40
0.09
  9
$DIMTSZ
 40
0.0
  9
$DIMTOL
 70
     0
  9
$DIMLIM
 70
     0
  9
$DIMTIH
 70
     1
  9
$DIMTOH
 70
     1
  9
$DIMSE1
 70
     0
  9
$DIMSE2
 70
     0
  9
$DIMTAD
 70
     0
  9
$DIMZIN
 70
     0
  9
$DIMBLK
  1

  9
$DIMASO
 70
     1
  9
$DIMSHO
 70
     1
  9
$DIMPOST
  1

  9
$DIMAPOST
  1

  9
$DIMALT
 70
     0
  9
$DIMALTD
 70
     2
  9
$DIMALTF
 40
25.4
  9
$DIMLFAC
 40
1.0
  9
$DIMTOFL
 70
     0
  9
$DIMTVP
 40
0.0
  9
$DIMTIX
 70
     0
  9
$DIMSOXD
 70
     0
  9
$DIMSAH
 70
     0
  9
$DIMBLK1
  1

  9
$DIMBLK2
  1

  9
$DIMSTYLE
  2
Standard
  9
$DIMCLRD
 70
     0
  9
$DIMCLRE
 70
     0
  9
$DIMCLRT
 70
     0
  9
$DIMTFAC
 40
1.0
  9
$DIMGAP
 40
0.09
  9
$DIMJUST
 70
     0
  9
$DIMSD1
 70
     0
  9
$DIMSD2
 70
     0
  9
$DIMTOLJ
 70
     1
  9
$DIMTZIN
 70
     0
  9
$DIMALTZ
 70
     0
  9
$DIMALTTZ
 70
     0
  9
$DIMFIT
 70
     3
  9
$DIMUPT
 70
     0
  9
$DIMUNIT
 70
     2
  9
$DIMDEC
 70
     4
  9
$DIMTDEC
 70
     4
  9
$DIMALTU
 70
     2
  9
$DIMALTTD
 70
     2
  9
$DIMTXSTY
  7
Standard
  9
$DIMAUNIT
 70
     0
  9
$LUNITS
 70
     2
  9
$LUPREC
 70
     4
  9
$SKETCHINC
 40
0.1
  9
$FILLETRAD
 40
0.0
  9
$AUNITS
 70
     0
  9
$AUPREC
 70
     0
  9
$MENU
  1
acad
  9
$ELEVATION
 40
0.0
  9
$PELEVATION
 40
0.0
  9
$THICKNESS
 40
0.0
  9
$LIMCHECK
 70
     0
  9
$BLIPMODE
 70
     1
  9
$CHAMFERA
 40
0.0
  9
$CHAMFERB
 40
0.0
  9
$CHAMFERC
 40
0.0
  9
$CHAMFERD
 40
0.0
  9
$SKPOLY
 70
     0
  9
$TDCREATE
 40
0.000000000
  9
$TDUPDATE
 40
0.000000000
  9
$TDINDWG
 40
0.0000000000
  9
$TDUSRTIMER
 40
0.0000000000
  9
$USRTIMER
 70
     1
  9
$ANGBASE
 50
0.0
  9
$ANGDIR
 70
     0
  9
$PDMODE
 70
     0
  9
$PDSIZE
 40
0.0
  9
$PLINEWID
 40
0.0
  9
$COORDS
 70
     0
  9
$SPLFRAME
 70
     0
  9
$SPLINETYPE
 70
     6
  9
$SPLINESEGS
 70
     8
  9
$ATTDIA
 70
     0
  9
$ATTREQ
 70
     1
  9
$HANDLING
 70
     1
  9
$HANDSEED
  5
13E
  9
$SURFTAB1
 70
     6
  9
$SURFTAB2
 70
     6
  9
$SURFTYPE
 70
     6
  9
$SURFU
 70
     6
  9
$SURFV
 70
     6
  9
$UCSNAME
  2

  9
$UCSORG
 10
0.0
 20
0.0
 30
0.0
  9
$UCSXDIR
 10
1.0
 20
0.0
 30
0.0
  9
$UCSYDIR
 10
0.0
 20
1.0
 30
0.0
  9
$PUCSNAME
  2

  9
$PUCSORG
 10
0.0
 20
0.0
 30
0.0
  9
$PUCSXDIR
 10
1.0
 20
0.0
 30
0.0
  9
$PUCSYDIR
 10
0.0
 20
1.0
 30
0.0
  9
$USERI1
 70
     0
  9
$USERI2
 70
     0
  9
$USERI3
 70
     0
  9
$USERI4
 70
     0
  9
$USERI5
 70
     0
  9
$USERR1
 40
0.0
  9
$USERR2
 40
0.0
  9
$USERR3
 40
0.0
  9
$USERR4
 40
0.0
  9
$USERR5
 40
0.0
  9
$WORLDVIEW
 70
     1
  9
$SHADEDGE
 70
     3
  9
$SHADEDIF
 70
    70
  9
$TILEMODE
 70
     1
  9
$MAXACTVP
 70
    16
  9
$PINSBASE
 10
0.0
 20
0.0
 30
0.0
  9
$PLIMCHECK
 70
     0
  9
$PEXTMIN
 10
1.000000E+20
 20
1.000000E+20
 30
1.000000E+20
  9
$PEXTMAX
 10
-1.000000E+20
 20
-1.000000E+20
 30
-1.000000E+20
  9
$PLIMMIN
 10
0.0
 20
0.0
  9
$PLIMMAX
 10
12.0
 20
9.0
  9
$UNITMODE
 70
     0
  9
$VISRETAIN
 70
     0
  9
$PLINEGEN
 70
     1
  9
$PSLTSCALE
 70
     0
  9
$TREEDEPTH
 70
  3020
  9
$PICKSTYLE
 70
     1
  9
$CMLSTYLE
  2
Standard
  9
$CMLJUST
 70
     0
  9
$CMLSCALE
 40
1.0
  9
$PROXYGRAPHICS
 70
     0
  9
$MEASUREMENT
 70
     0
  0
ENDSEC
  0
SECTION
  2
CLASSES
  0
CLASS
  1
LWPOLYLINE
  2
AcDbPolyline
  3
"AutoCAD"
 90
        0
280
     0
281
     1
  0
CLASS
  1
IMAGE
  2
AcDbRasterImage
  3
ISM
 90
      127
280
     0
281
     1
  0
CLASS
  1
OLE2FRAME
  2
AcDbOle2Frame
  3
""
 90
        0
280
     0
281
     1
  0
CLASS
  1
HATCH
  2
AcDbHatch
  3
"ACAD_SEDONA"
 90
        0
280
     0
281
     1
  0
CLASS
  1
DICTIONARYVAR
  2
AcDbDictionaryVar
  3
"AutoCAD"
 90
        0
280
     0
281
     0
  0
CLASS
  1
RASTERVARIABLES
  2
AcDbRasterVariables
  3
ISM
 90
        0
280
     0
281
     0
  0
CLASS
  1
IMAGEDEF
  2
AcDbRasterImageDef
  3
ISM
 90
        0
280
     0
281
     0
  0
CLASS
  1
IMAGEDEF_REACTOR
  2
AcDbRasterImageDefReactor
  3
ISM
 90
        1
280
     0
281
     0
  0
CLASS
  1
IDBUFFER
  2
AcDbIdBuffer
  3
"Acad"
 90
        0
280
     0
281
     0
  0
CLASS
  1
SPATIAL_FILTER
  2
AcDbSpatialFilter
  3
"Acad"
 90
        0
280
     0
281
     0
  0
CLASS
  1
XRECORD
  2
AcDbXrecord
  3
"<Built In>"
 90
        0
280
     0
281
     0
  0
CLASS
  1
SORTENTSTABLE
  2
AcDbSortentsTable
  3
"AutoCAD"
 90
        0
280
     0
281
     0
  0
CLASS
  1
LAYER_INDEX
  2
AcDbLayerIndex
  3
"Acad"
 90
        0
280
     0
281
     0
  0
CLASS
  1
SPATIAL_INDEX
  2
AcDbSpatialIndex
  3
"Acad"
 90
        0
280
     0
281
     0
  0
CLASS
  1
OBJECT_PTR
  2
CAseDLPNTableRecord
  3
"ASE-LPNTableRecord"
 90
        1
280
     0
281
     0
  0
CLASS
  1
LAYOUT
  2
AcDbLayout
  3
"AutoCAD 2000"
 90
        0
280
     0
281
     0
  0
CLASS
  1
PLOTSETTINGS
  2
AcDbPlotSettings
  3
"AutoCAD 2000"
 90
        0
280
     0
281
     0
  0
CLASS
  1
ACDBDICTIONARYWDFLT
  2
AcDbDictionaryWithDefault
  3
"AutoCAD 2000"
 90
        0
280
     0
281
     0
  0
CLASS
  1
ACDBPLACEHOLDER
  2
AcDbPlaceHolder
  3
"AutoCAD 2000"
 90
        0
280
     0
281
     0
  0
CLASS
  1
VBA_PROJECT
  2
AcDbVbaProject
  3
"acadvba"
 90
        0
280
     0
281
     0
  0
CLASS
  1
WIPEOUT
  2
AcDbWipeout
  3
WipeOut|AutoCAD Express Tool|expresstools@autodesk.com
 90
      127
280
     0
281
     1
  0
CLASS
  1
WIPEOUTVARIABLES
  2
AcDbWipeoutVariables
  3
WipeOut|AutoCAD Express Tool|expresstools@autodesk.com
 90
        0
280
     0
281
     0
  0
CLASS
  1
RTEXT
  2
RText
  3
RText|AutoCAD Express Tool|expresstools@autodesk.com
 90
        0
280
     0
281
     1
  0
CLASS
  1
ARCALIGNEDTEXT
  2
AcDbArcAlignedText
  3
ATEXT|AutoCAD Express Tool|expresstools@autodesk.com
 90
        0
280
     0
281
     1
  0
ENDSEC
  0
SECTION
  2
TABLES
  0
TABLE
  2
VPORT
  5
7
100
AcDbSymbolTable
 70
     1
  0
VPORT
  5
15
100
AcDbSymbolTableRecord
100
AcDbViewportTableRecord
  2
*ACTIVE
 70
     0
 10
0.0
 20
0.0
 11
1.0
 21
1.0
 12
231.557438
 22
146.407311
 13
0.0
 23
0.0
 14
10.0
 24
10.0
 15
10.0
 25
10.0
 16
0.0
 26
0.0
 36
1.0
 17
0.0
 27
0.0
 37
0.0
 40
292.814622
 41
1.581598
 42
50.0
 43
0.0
 44
0.0
 50
0.0
 51
0.0
 71
     0
 72
   100
 73
     1
 74
     1
 75
     0
 76
     0
 77
     0
 78
     0
  0
ENDTAB
  0
TABLE
  2
LTYPE
  5
4
100
AcDbSymbolTable
 70
    24
  0
LTYPE
  5
11
100
AcDbSymbolTableRecord
100
AcDbLinetypeTableRecord
  2
ByBlock
 70
    64
  3

 72
    65
 73
     0
 40
0.0
  0
LTYPE
  5
12
100
AcDbSymbolTableRecord
100
AcDbLinetypeTableRecord
  2
ByLayer
 70
    64
  3

 72
    65
 73
     0
 40
0.0
  0
LTYPE
  5
13
100
AcDbSymbolTableRecord
100
AcDbLinetypeTableRecord
  2
Continuous
 70
    64
  3
Solid line
 72
    65
 73
     0
 40
0.0
  0
LTYPE
  5
1D
100
AcDbSymbolTableRecord
100
AcDbLinetypeTableRecord
  2
DOT
 70
    64
  3
Dot . . . . . . . . . . . . . . . . . . . . . .
 72
    65
 73
     2
 40
6.35
 49
0.35
 74
     0
 49
-6.0
 74
     0
  0
LTYPE
  5
1E
100
AcDbSymbolTableRecord
100
AcDbLinetypeTableRecord
  2
DASHED
 70
    64
  3
Dashed __ __ __ __ __ __ __ __ __ __ __ __ __ _
 72
    65
 73
     2
 40
12.7
 49
6.35
 74
     0
 49
-6.35
 74
     0
  0
LTYPE
  5
1F
100
AcDbSymbolTableRecord
100
AcDbLinetypeTableRecord
  2
DASHDOT
 70
    64
  3
Dash dot __ . __ . __ . __ . __ . __ . __ . __
 72
    65
 73
     4
 40
25.4
 49
12.7
 74
     0
 49
-6.0
 74
     0
 49
0.7
 74
     0
 49
-6.0
 74
     0
  0
LTYPE
  5
20
100
AcDbSymbolTableRecord
100
AcDbLinetypeTableRecord
  2
DIVIDE
 70
    64
  3
Divide ____ . . ____ . . ____ . . ____ . . ____
 72
    65
 73
     6
 40
31.75
 49
12.7
 74
     0
 49
-6.0
 74
     0
 49
0.875
 74
     0
 49
-6.0
 74
     0
 49
0.875
 74
     0
 49
-6.0
 74
     0
  0
LTYPE
  5
21
100
AcDbSymbolTableRecord
100
AcDbLinetypeTableRecord
  2
HIDDEN
 70
    64
  3
Hidden __ __ __ __ __ __ __ __ __ __ __ __ __ _
 72
    65
 73
     2
 40
9.525
 49
6.35
 74
     0
 49
-3.175
 74
     0
  0
LTYPE
  5
22
100
AcDbSymbolTableRecord
100
AcDbLinetypeTableRecord
  2
CENTER
 70
    64
  3
Center ____ _ ____ _ ____ _ ____ _ ____ _ ____
 72
    65
 73
     4
 40
50.8
 49
31.75
 74
     0
 49
-6.35
 74
     0
 49
6.35
 74
     0
 49
-6.35
 74
     0
  0
LTYPE
  5
23
100
AcDbSymbolTableRecord
100
AcDbLinetypeTableRecord
  2
PHANTOM
 70
    64
  3
Phantom ______  __  __  ______  __  __  ______
 72
    65
 73
     6
 40
63.5
 49
31.75
 74
     0
 49
-6.35
 74
     0
 49
6.35
 74
     0
 49
-6.35
 74
     0
 49
6.35
 74
     0
 49
-6.35
 74
     0
  0
LTYPE
  5
24
100
AcDbSymbolTableRecord
100
AcDbLinetypeTableRecord
  2
ACAD_ISO02W100
 70
    64
  3
ISO dash __ __ __ __ __ __ __ __ __ __ __ __ __
 72
    65
 73
     2
 40
15.0
 49
12.0
 74
     0
 49
-3.0
 74
     0
  0
LTYPE
  5
25
100
AcDbSymbolTableRecord
100
AcDbLinetypeTableRecord
  2
ACAD_ISO03W100
 70
    64
  3
ISO dash space __ __ __ __ __ __ __ __ __ __ __ __ __ __
 72
    65
 73
     2
 40
30.0
 49
12.0
 74
     0
 49
-18.0
 74
     0
  0
LTYPE
  5
26
100
AcDbSymbolTableRecord
100
AcDbLinetypeTableRecord
  2
ACAD_ISO04W100
 70
    64
  3
ISO long-dash dot ____ . ____ . ____ . ____ . _
 72
    65
 73
     4
 40
30.0
 49
24.0
 74
     0
 49
-3.0
 74
     0
 49
0.0
 74
     0
 49
-3.0
 74
     0
  0
LTYPE
  5
27
100
AcDbSymbolTableRecord
100
AcDbLinetypeTableRecord
  2
ACAD_ISO05W100
 70
    64
  3
ISO long-dash double-dot ____ .. ____ .. ____ .
 72
    65
 73
     6
 40
33.0
 49
24.0
 74
     0
 49
-3.0
 74
     0
 49
0.0
 74
     0
 49
-3.0
 74
     0
 49
0.0
 74
     0
 49
-3.0
 74
     0
  0
LTYPE
  5
28
100
AcDbSymbolTableRecord
100
AcDbLinetypeTableRecord
  2
ACAD_ISO06W100
 70
    64
  3
ISO long-dash triple-dot ____ ... ____ ... ____
 72
    65
 73
     8
 40
36.0
 49
24.0
 74
     0
 49
-3.0
 74
     0
 49
0.0
 74
     0
 49
-3.0
 74
     0
 49
0.0
 74
     0
 49
-3.0
 74
     0
 49
0.0
 74
     0
 49
-3.0
 74
     0
  0
LTYPE
  5
29
100
AcDbSymbolTableRecord
100
AcDbLinetypeTableRecord
  2
ACAD_ISO07W100
 70
    64
  3
ISO dot . . . . . . . . . . . . . . . . . . . .
 72
    65
 73
     2
 40
3.0
 49
0.0
 74
     0
 49
-3.0
 74
     0
  0
LTYPE
  5
2A
100
AcDbSymbolTableRecord
100
AcDbLinetypeTableRecord
  2
ACAD_ISO08W100
 70
    64
  3
ISO long-dash short-dash ____ __ ____ __ ____ _
 72
    65
 73
     4
 40
36.0
 49
24.0
 74
     0
 49
-3.0
 74
     0
 49
6.0
 74
     0
 49
-3.0
 74
     0
  0
LTYPE
  5
2B
100
AcDbSymbolTableRecord
100
AcDbLinetypeTableRecord
  2
ACAD_ISO09W100
 70
    64
  3
ISO long-dash double-short-dash ____ __ __ ____
 72
    65
 73
     6
 40
45.0
 49
24.0
 74
     0
 49
-3.0
 74
     0
 49
6.0
 74
     0
 49
-3.0
 74
     0
 49
6.0
 74
     0
 49
-3.0
 74
     0
  0
LTYPE
  5
2C
100
AcDbSymbolTableRecord
100
AcDbLinetypeTableRecord
  2
ACAD_ISO10W100
 70
    64
  3
ISO dash dot __ . __ . __ . __ . __ . __ . __ .
 72
    65
 73
     4
 40
18.0
 49
12.0
 74
     0
 49
-3.0
 74
     0
 49
0.0
 74
     0
 49
-3.0
 74
     0
  0
LTYPE
  5
2D
100
AcDbSymbolTableRecord
100
AcDbLinetypeTableRecord
  2
ACAD_ISO11W100
 70
    64
  3
ISO double-dash dot __ __ . __ __ . __ __ . __ 
 72
    65
 73
     6
 40
33.0
 49
12.0
 74
     0
 49
-3.0
 74
     0
 49
12.0
 74
     0
 49
-3.0
 74
     0
 49
0.0
 74
     0
 49
-3.0
 74
     0
  0
LTYPE
  5
2E
100
AcDbSymbolTableRecord
100
AcDbLinetypeTableRecord
  2
ACAD_ISO12W100
 70
    64
  3
ISO dash double-dot __ . . __ . . __ . . __ . .
 72
    65
 73
     6
 40
21.0
 49
12.0
 74
     0
 49
-3.0
 74
     0
 49
0.0
 74
     0
 49
-3.0
 74
     0
 49
0.0
 74
     0
 49
-3.0
 74
     0
  0
LTYPE
  5
2F
100
AcDbSymbolTableRecord
100
AcDbLinetypeTableRecord
  2
ACAD_ISO13W100
 70
    64
  3
ISO double-dash double-dot __ __ . . __ __ . . 
 72
    65
 73
     8
 40
36.0
 49
12.0
 74
     0
 49
-3.0
 74
     0
 49
12.0
 74
     0
 49
-3.0
 74
     0
 49
0.0
 74
     0
 49
-3.0
 74
     0
 49
0.0
 74
     0
 49
-3.0
 74
     0
  0
LTYPE
  5
30
100
AcDbSymbolTableRecord
100
AcDbLinetypeTableRecord
  2
ACAD_ISO14W100
 70
    64
  3
ISO dash triple-dot __ . . . __ . . . __ . . . 
 72
    65
 73
     8
 40
24.0
 49
12.0
 74
     0
 49
-3.0
 74
     0
 49
0.0
 74
     0
 49
-3.0
 74
     0
 49
0.0
 74
     0
 49
-3.0
 74
     0
 49
0.0
 74
     0
 49
-3.0
 74
     0
  0
LTYPE
  5
31
100
AcDbSymbolTableRecord
100
AcDbLinetypeTableRecord
  2
ACAD_ISO15W100
 70
    64
  3
ISO double-dash double-dot __ __ . . __ __ . . 
 72
    65
 73
    10
 40
39.0
 49
12.0
 74
     0
 49
-3.0
 74
     0
 49
12.0
 74
     0
 49
-3.0
 74
     0
 49
0.0
 74
     0
 49
-3.0
 74
     0
 49
0.0
 74
     0
 49
-3.0
 74
     0
 49
0.0
 74
     0
 49
-3.0
 74
     0
  0
ENDTAB
  0
TABLE
  2
LAYER
  5
2
100
AcDbSymbolTable
 70
     1
  0
LAYER
  5
14
100
AcDbSymbolTableRecord
100
AcDbLayerTableRecord
  2
0
 70
     0
 62
     7
  6
Continuous
  0
ENDTAB
  0
TABLE
  2
STYLE
  5
3
100
AcDbSymbolTable
 70
     4
  0
STYLE
  5
17
100
AcDbSymbolTableRecord
100
AcDbTextStyleTableRecord
  2
Standard
 70
     0
 40
0.0
 41
1.0
 50
0.0
 71
     0
 42
0.0
  3
txt.shx
  4
bigfont.shx
  0
STYLE
  5
32
100
AcDbSymbolTableRecord
100
AcDbTextStyleTableRecord
  2
STANDARD_T
 70
     4
 40
0.0
 41
1.0
 50
0.0
 71
     0
 42
0.0
  3
txt.shx
  4
bigfont.shx
  0
STYLE
  5
33
100
AcDbSymbolTableRecord
100
AcDbTextStyleTableRecord
  2
FontTableH_0
 70
     0
 40
0.0
 41
1.0
 50
0.0
 71
     0
 42
0.0
  3
MS Gothic.ttf
  4

1001
ACAD
1000
MS Gothic
1071
    32817
  0
STYLE
  5
34
100
AcDbSymbolTableRecord
100
AcDbTextStyleTableRecord
  2
FontTableV_0
 70
     0
 40
0.0
 41
1.0
 50
0.0
 71
     0
 42
0.0
  3
@MS Gothic.ttf
  4

1001
ACAD
1000
@MS Gothic
1071
    32817
  0
ENDTAB
  0
TABLE
  2
VIEW
  5
5
100
AcDbSymbolTable
 70
     0
  0
ENDTAB
  0
TABLE
  2
UCS
  5
6
100
AcDbSymbolTable
 70
     0
  0
ENDTAB
  0
TABLE
  2
APPID
  5
8
100
AcDbSymbolTable
 70
     1
  0
APPID
  5
16
100
AcDbSymbolTableRecord
100
AcDbRegAppTableRecord
  2
ACAD
 70
     0
  0
ENDTAB
  0
TABLE
  2
DIMSTYLE
  5
9
100
AcDbSymbolTable
 70
     1
  0
DIMSTYLE
105
18
100
AcDbSymbolTableRecord
100
AcDbDimStyleTableRecord
  2
Standard
 70
     0
  3

  4

  5

  6

  7

 40
1.0
 41
0.18
 42
0.0625
 43
0.38
 44
0.18
 45
0.0
 46
0.0
 47
0.0
 48
0.0
 71
     0
 72
     0
 73
     1
 74
     1
 75
     0
 76
     0
 77
     0
 78
     0
140
0.18
141
0.09
142
0.0
143
25.4
144
1.0
145
0.0
146
1.0
147
0.09
170
     0
171
     2
172
     0
173
     0
174
     0
175
     0
176
     0
177
     0
178
     0
270
     2
271
     4
272
     4
273
     2
274
     2
275
     0
280
     0
281
     0
282
     0
283
     1
284
     0
285
     0
286
     0
287
     0
288
     0
340
17
  0
ENDTAB
  0
TABLE
  2
BLOCK_RECORD
  5
1
100
AcDbSymbolTable
 70
     0
  0
BLOCK_RECORD
  5
A
100
AcDbSymbolTableRecord
100
AcDbBlockTableRecord
  2
*MODEL_SPACE
  0
BLOCK_RECORD
  5
B
100
AcDbSymbolTableRecord
100
AcDbBlockTableRecord
  2
*PAPER_SPACE
  0
ENDTAB
  0
ENDSEC
  0
SECTION
  2
BLOCKS
  0
BLOCK
  5
D
100
AcDbEntity
  8
0
100
AcDbBlockBegin
  2
*MODEL_SPACE
 70
     0
 10
0.0
 20
0.0
 30
0.0
  3
*MODEL_SPACE
  1

  0
ENDBLK
  5
E
100
AcDbEntity
  8
0
100
AcDbBlockEnd
  0
BLOCK
  5
F
100
AcDbEntity
 67
     1
  8
0
100
AcDbBlockBegin
  2
*PAPER_SPACE
 70
     0
 10
0.0
 20
0.0
 30
0.0
  3
*PAPER_SPACE
  1

  0
ENDBLK
  5
10
100
AcDbEntity
 67
     1
  8
0
100
AcDbBlockEnd
  0
ENDSEC
  0
SECTION
  2
ENTITIES
  0
LINE
  5
35
100
AcDbEntity
  8
0
  6
Continuous
 62
     2
100
AcDbLine
 10
95.911365
 20
244.854046
 30
0.0
 11
367.203511
 21
244.854046
 31
0.0
  0
LINE
  5
36
100
AcDbEntity
  8
0
  6
Continuous
 62
     2
100
AcDbLine
 10
95.911365
 20
244.854046
 30
0.0
 11
95.911365
 21
47.960576
 31
0.0
  0
LINE
  5
37
100
AcDbEntity
  8
0
  6
Continuous
 62
     2
100
AcDbLine
 10
367.203511
 20
244.854046
 30
0.0
 11
367.203511
 21
47.960576
 31
0.0
  0
LINE
  5
38
100
AcDbEntity
  8
0
  6
Continuous
 62
     4
100
AcDbLine
 10
322.113401
 20
69.002626
 30
0.0
 11
322.113401
 21
47.960576
 31
0.0
  0
LINE
  5
39
100
AcDbEntity
  8
0
  6
Continuous
 62
     4
100
AcDbLine
 10
322.113401
 20
53.221088
 30
0.0
 11
367.203511
 21
53.221088
 31
0.0
  0
LINE
  5
3A
100
AcDbEntity
  8
0
  6
Continuous
 62
     2
100
AcDbLine
 10
95.911365
 20
47.960576
 30
0.0
 11
367.203511
 21
47.960576
 31
0.0
  0
LINE
  5
3B
100
AcDbEntity
  8
0
  6
Continuous
 62
     2
100
AcDbLine
 10
322.125111
 20
69.002626
 30
0.0
 11
367.203511
 21
69.002626
 31
0.0
  0
LINE
  5
3C
100
AcDbEntity
  8
0
  6
Continuous
 62
     4
100
AcDbLine
 10
322.125111
 20
58.481601
 30
0.0
 11
367.203511
 21
58.481601
 31
0.0
  0
LINE
  5
3D
100
AcDbEntity
  8
0
  6
Continuous
 62
     2
100
AcDbLine
 10
247.371171
 20
172.383056
 30
0.0
 11
247.371171
 21
107.383061
 31
0.0
  0
LINE
  5
3E
100
AcDbEntity
  8
0
  6
Continuous
 62
     2
100
AcDbLine
 10
259.871171
 20
172.383056
 30
0.0
 11
259.871171
 21
107.383061
 31
0.0
  0
LINE
  5
3F
100
AcDbEntity
  8
0
  6
Continuous
 62
     2
100
AcDbLine
 10
269.871171
 20
172.383056
 30
0.0
 11
269.871171
 21
107.383061
 31
0.0
  0
LINE
  5
40
100
AcDbEntity
  8
0
  6
Continuous
 62
     2
100
AcDbLine
 10
279.871171
 20
172.383056
 30
0.0
 11
279.871171
 21
107.383061
 31
0.0
  0
LINE
  5
41
100
AcDbEntity
  8
0
  6
Continuous
 62
     2
100
AcDbLine
 10
289.871171
 20
172.383056
 30
0.0
 11
289.871171
 21
107.383061
 31
0.0
  0
LINE
  5
42
100
AcDbEntity
  8
0
  6
Continuous
 62
     2
100
AcDbLine
 10
299.871171
 20
172.383056
 30
0.0
 11
299.871171
 21
107.383061
 31
0.0
  0
LINE
  5
43
100
AcDbEntity
  8
0
  6
Continuous
 62
     2
100
AcDbLine
 10
309.871171
 20
172.383056
 30
0.0
 11
309.871171
 21
107.383061
 31
0.0
  0
LINE
  5
44
100
AcDbEntity
  8
0
  6
Continuous
 62
     2
100
AcDbLine
 10
319.871171
 20
172.383056
 30
0.0
 11
319.871171
 21
107.383061
 31
0.0
  0
LINE
  5
45
100
AcDbEntity
  8
0
  6
Continuous
 62
     2
100
AcDbLine
 10
329.871171
 20
172.383056
 30
0.0
 11
329.871171
 21
107.383061
 31
0.0
  0
LINE
  5
46
100
AcDbEntity
  8
0
  6
Continuous
 62
     2
100
AcDbLine
 10
339.871171
 20
172.383056
 30
0.0
 11
339.871171
 21
107.383061
 31
0.0
  0
LINE
  5
47
100
AcDbEntity
  8
0
  6
Continuous
 62
     2
100
AcDbLine
 10
259.871171
 20
169.883056
 30
0.0
 11
329.871171
 21
169.883056
 31
0.0
  0
LINE
  5
48
100
AcDbEntity
  8
0
  6
DASHDOT
 62
     4
100
AcDbLine
 10
164.031933
 20
209.481706
 30
0.0
 11
164.031933
 21
172.992336
 31
0.0
  0
LINE
  5
49
100
AcDbEntity
  8
0
  6
Continuous
 62
     2
100
AcDbLine
 10
125.698599
 20
184.712196
 30
0.0
 11
125.698599
 21
183.045536
 31
0.0
  0
LINE
  5
4A
100
AcDbEntity
  8
0
  6
Continuous
 62
     2
100
AcDbLine
 10
164.031933
 20
195.712196
 30
0.0
 11
134.698599
 21
195.712196
 31
0.0
  0
LINE
  5
4B
100
AcDbEntity
  8
0
  6
Continuous
 62
     2
100
AcDbLine
 10
164.031933
 20
183.045536
 30
0.0
 11
125.698599
 21
183.045536
 31
0.0
  0
LINE
  5
4C
100
AcDbEntity
  8
0
  6
Continuous
 62
     2
100
AcDbLine
 10
135.198599
 20
184.712196
 30
0.0
 11
125.698599
 21
184.712196
 31
0.0
  0
LINE
  5
4D
100
AcDbEntity
  8
0
  6
Continuous
 62
     2
100
AcDbLine
 10
128.031933
 20
184.712196
 30
0.0
 11
128.031933
 21
183.045536
 31
0.0
  0
LINE
  5
4E
100
AcDbEntity
  8
0
  6
Continuous
 62
     2
100
AcDbLine
 10
131.365266
 20
184.712196
 30
0.0
 11
131.365266
 21
183.045536
 31
0.0
  0
LINE
  5
4F
100
AcDbEntity
  8
0
  6
Continuous
 62
     4
100
AcDbLine
 10
129.698599
 20
186.393586
 30
0.0
 11
129.698599
 21
180.653736
 31
0.0
  0
LINE
  5
50
100
AcDbEntity
  8
0
  6
Continuous
 62
     4
100
AcDbLine
 10
202.365261
 20
162.045536
 30
0.0
 11
202.365261
 21
181.045536
 31
0.0
  0
LINE
  5
51
100
AcDbEntity
  8
0
  6
Continuous
 62
     4
100
AcDbLine
 10
125.698599
 20
162.045536
 30
0.0
 11
125.698599
 21
181.045536
 31
0.0
  0
LINE
  5
52
100
AcDbEntity
  8
0
  6
Continuous
 62
     4
100
AcDbLine
 10
198.365261
 20
172.045536
 30
0.0
 11
198.365261
 21
178.653736
 31
0.0
  0
LINE
  5
53
100
AcDbEntity
  8
0
  6
Continuous
 62
     4
100
AcDbLine
 10
129.698599
 20
172.045536
 30
0.0
 11
129.698599
 21
178.653736
 31
0.0
  0
LINE
  5
54
100
AcDbEntity
  8
0
  6
Continuous
 62
     4
100
AcDbLine
 10
191.698591
 20
197.712196
 30
0.0
 11
191.698591
 21
214.045536
 31
0.0
  0
LINE
  5
55
100
AcDbEntity
  8
0
  6
Continuous
 62
     4
100
AcDbLine
 10
136.365266
 20
197.712196
 30
0.0
 11
136.365266
 21
214.045536
 31
0.0
  0
LINE
  5
56
100
AcDbEntity
  8
0
  6
Continuous
 62
     2
100
AcDbLine
 10
134.698599
 20
186.378866
 30
0.0
 11
135.198599
 21
184.712196
 31
0.0
  0
LINE
  5
57
100
AcDbEntity
  8
0
  6
Continuous
 62
     2
100
AcDbLine
 10
134.698599
 20
195.712196
 30
0.0
 11
134.698599
 21
186.378866
 31
0.0
  0
LINE
  5
58
100
AcDbEntity
  8
0
  6
Continuous
 62
     2
100
AcDbLine
 10
136.365266
 20
195.712196
 30
0.0
 11
136.365266
 21
186.378866
 31
0.0
  0
LINE
  5
59
100
AcDbEntity
  8
0
  6
Continuous
 62
     2
100
AcDbLine
 10
125.698599
 20
184.712196
 30
0.0
 11
135.198599
 21
184.712196
 31
0.0
  0
LINE
  5
5A
100
AcDbEntity
  8
0
  6
Continuous
 62
     2
100
AcDbLine
 10
202.365261
 20
184.712196
 30
0.0
 11
202.365261
 21
183.045536
 31
0.0
  0
LINE
  5
5B
100
AcDbEntity
  8
0
  6
Continuous
 62
     2
100
AcDbLine
 10
164.031933
 20
195.712196
 30
0.0
 11
193.365261
 21
195.712196
 31
0.0
  0
LINE
  5
5C
100
AcDbEntity
  8
0
  6
Continuous
 62
     2
100
AcDbLine
 10
164.031933
 20
183.045536
 30
0.0
 11
202.365261
 21
183.045536
 31
0.0
  0
LINE
  5
5D
100
AcDbEntity
  8
0
  6
Continuous
 62
     2
100
AcDbLine
 10
192.865261
 20
184.712196
 30
0.0
 11
202.365261
 21
184.712196
 31
0.0
  0
LINE
  5
5E
100
AcDbEntity
  8
0
  6
Continuous
 62
     2
100
AcDbLine
 10
200.031931
 20
184.712196
 30
0.0
 11
200.031931
 21
183.045536
 31
0.0
  0
LINE
  5
5F
100
AcDbEntity
  8
0
  6
Continuous
 62
     2
100
AcDbLine
 10
196.698591
 20
184.712196
 30
0.0
 11
196.698591
 21
183.045536
 31
0.0
  0
LINE
  5
60
100
AcDbEntity
  8
0
  6
Continuous
 62
     2
100
AcDbLine
 10
193.365261
 20
186.378866
 30
0.0
 11
192.865261
 21
184.712196
 31
0.0
  0
LINE
  5
61
100
AcDbEntity
  8
0
  6
Continuous
 62
     2
100
AcDbLine
 10
193.365261
 20
195.712196
 30
0.0
 11
193.365261
 21
186.378866
 31
0.0
  0
LINE
  5
62
100
AcDbEntity
  8
0
  6
Continuous
 62
     2
100
AcDbLine
 10
191.698591
 20
195.712196
 30
0.0
 11
191.698591
 21
186.378866
 31
0.0
  0
LINE
  5
63
100
AcDbEntity
  8
0
  6
Continuous
 62
     2
100
AcDbLine
 10
202.365261
 20
184.712196
 30
0.0
 11
192.865261
 21
184.712196
 31
0.0
  0
LINE
  5
64
100
AcDbEntity
  8
0
  6
Continuous
 62
     4
100
AcDbLine
 10
198.365261
 20
186.393586
 30
0.0
 11
198.365261
 21
180.653736
 31
0.0
  0
LINE
  5
65
100
AcDbEntity
  8
0
  6
Continuous
 62
     4
100
AcDbLine
 10
138.365266
 20
186.378866
 30
0.0
 11
147.365266
 21
186.378866
 31
0.0
  0
LINE
  5
66
100
AcDbEntity
  8
0
  6
Continuous
 62
     4
100
AcDbLine
 10
196.698591
 20
186.712196
 30
0.0
 11
196.698591
 21
195.712196
 31
0.0
  0
LINE
  5
67
100
AcDbEntity
  8
0
  6
Continuous
 62
     4
100
AcDbLine
 10
200.031931
 20
186.712196
 30
0.0
 11
200.031931
 21
195.712196
 31
0.0
  0
LINE
  5
68
100
AcDbEntity
  8
0
  6
Continuous
 62
     4
100
AcDbLine
 10
204.365261
 20
183.045536
 30
0.0
 11
223.365261
 21
183.045536
 31
0.0
  0
LINE
  5
69
100
AcDbEntity
  8
0
  6
Continuous
 62
     4
100
AcDbLine
 10
204.365261
 20
184.712196
 30
0.0
 11
223.365261
 21
184.712196
 31
0.0
  0
LINE
  5
6A
100
AcDbEntity
  8
0
  6
DASHDOT
 62
     4
100
AcDbLine
 10
164.031933
 20
172.992336
 30
0.0
 11
164.031933
 21
77.300856
 31
0.0
  0
LINE
  5
6B
100
AcDbEntity
  8
0
  6
DASHDOT
 62
     4
100
AcDbLine
 10
120.858174
 20
117.141281
 30
0.0
 11
212.081571
 21
117.141281
 31
0.0
  0
LINE
  5
6C
100
AcDbEntity
  8
0
  6
DASHDOT
 62
     4
100
AcDbLine
 10
152.332777
 20
145.385536
 30
0.0
 11
149.610683
 21
151.957256
 31
0.0
  0
LINE
  5
6D
100
AcDbEntity
  8
0
  6
DASHDOT
 62
     4
100
AcDbLine
 10
135.787673
 20
128.840437
 30
0.0
 11
129.215956
 21
131.562531
 31
0.0
  0
LINE
  5
6E
100
AcDbEntity
  8
0
  6
DASHDOT
 62
     4
100
AcDbLine
 10
135.787673
 20
105.442126
 30
0.0
 11
129.215956
 21
102.720032
 31
0.0
  0
LINE
  5
6F
100
AcDbEntity
  8
0
  6
DASHDOT
 62
     4
100
AcDbLine
 10
152.332777
 20
88.897022
 30
0.0
 11
149.610683
 21
82.325305
 31
0.0
  0
LINE
  5
70
100
AcDbEntity
  8
0
  6
DASHDOT
 62
     4
100
AcDbLine
 10
175.731088
 20
88.897022
 30
0.0
 11
178.453182
 21
82.325305
 31
0.0
  0
LINE
  5
71
100
AcDbEntity
  8
0
  6
DASHDOT
 62
     4
100
AcDbLine
 10
192.276191
 20
105.442126
 30
0.0
 11
198.847901
 21
102.720032
 31
0.0
  0
LINE
  5
72
100
AcDbEntity
  8
0
  6
DASHDOT
 62
     4
100
AcDbLine
 10
192.276191
 20
128.840437
 30
0.0
 11
198.847901
 21
131.562531
 31
0.0
  0
LINE
  5
73
100
AcDbEntity
  8
0
  6
DASHDOT
 62
     4
100
AcDbLine
 10
175.731088
 20
145.385536
 30
0.0
 11
178.453182
 21
151.957256
 31
0.0
  0
LINE
  5
74
100
AcDbEntity
  8
0
  6
Continuous
 62
     4
100
AcDbLine
 10
222.365261
 20
184.712196
 30
0.0
 11
222.365261
 21
183.045529
 31
0.0
  0
LINE
  5
75
100
AcDbEntity
  8
0
  6
Continuous
 62
     4
100
AcDbLine
 10
222.365261
 20
183.045536
 30
0.0
 11
222.886205
 21
180.091112
 31
0.0
  0
LINE
  5
76
100
AcDbEntity
  8
0
  6
Continuous
 62
     4
100
AcDbLine
 10
222.365261
 20
183.045536
 30
0.0
 11
221.844316
 21
180.091112
 31
0.0
  0
LINE
  5
77
100
AcDbEntity
  8
0
  6
Continuous
 62
     4
100
AcDbLine
 10
222.365261
 20
183.045536
 30
0.0
 11
222.365261
 21
177.930059
 31
0.0
  0
LINE
  5
78
100
AcDbEntity
  8
0
  6
Continuous
 62
     4
100
AcDbLine
 10
191.698591
 20
213.045536
 30
0.0
 11
188.744168
 21
212.524591
 31
0.0
  0
LINE
  5
79
100
AcDbEntity
  8
0
  6
Continuous
 62
     4
100
AcDbLine
 10
191.698591
 20
213.045536
 30
0.0
 11
188.744168
 21
213.56648
 31
0.0
  0
LINE
  5
7A
100
AcDbEntity
  8
0
  6
Continuous
 62
     4
100
AcDbLine
 10
136.365258
 20
213.045536
 30
0.0
 11
139.319681
 21
213.56648
 31
0.0
  0
LINE
  5
7B
100
AcDbEntity
  8
0
  6
Continuous
 62
     4
100
AcDbLine
 10
136.365258
 20
213.045536
 30
0.0
 11
139.319681
 21
212.524591
 31
0.0
  0
LINE
  5
7C
100
AcDbEntity
  8
0
  6
Continuous
 62
     4
100
AcDbLine
 10
136.365258
 20
213.045536
 30
0.0
 11
191.698591
 21
213.045536
 31
0.0
  0
LINE
  5
7D
100
AcDbEntity
  8
0
  6
Continuous
 62
     4
100
AcDbLine
 10
146.365266
 20
186.378866
 30
0.0
 11
145.844321
 21
189.333289
 31
0.0
  0
LINE
  5
7E
100
AcDbEntity
  8
0
  6
Continuous
 62
     4
100
AcDbLine
 10
146.365266
 20
186.378866
 30
0.0
 11
146.88621
 21
189.333289
 31
0.0
  0
LINE
  5
7F
100
AcDbEntity
  8
0
  6
Continuous
 62
     4
100
AcDbLine
 10
146.365266
 20
195.712199
 30
0.0
 11
146.88621
 21
192.757776
 31
0.0
  0
LINE
  5
80
100
AcDbEntity
  8
0
  6
Continuous
 62
     4
100
AcDbLine
 10
146.365266
 20
195.712199
 30
0.0
 11
145.844321
 21
192.757776
 31
0.0
  0
LINE
  5
81
100
AcDbEntity
  8
0
  6
Continuous
 62
     4
100
AcDbLine
 10
146.365266
 20
195.712199
 30
0.0
 11
146.365266
 21
186.378866
 31
0.0
  0
LINE
  5
82
100
AcDbEntity
  8
0
  6
Continuous
 62
     4
100
AcDbLine
 10
156.365266
 20
195.712196
 30
0.0
 11
156.88621
 21
192.757772
 31
0.0
  0
LINE
  5
83
100
AcDbEntity
  8
0
  6
Continuous
 62
     4
100
AcDbLine
 10
156.365266
 20
195.712196
 30
0.0
 11
155.844321
 21
192.757772
 31
0.0
  0
LINE
  5
84
100
AcDbEntity
  8
0
  6
Continuous
 62
     4
100
AcDbLine
 10
156.365266
 20
183.04553
 30
0.0
 11
155.844321
 21
185.999952
 31
0.0
  0
LINE
  5
85
100
AcDbEntity
  8
0
  6
Continuous
 62
     4
100
AcDbLine
 10
156.365266
 20
183.04553
 30
0.0
 11
156.88621
 21
185.999952
 31
0.0
  0
LINE
  5
86
100
AcDbEntity
  8
0
  6
Continuous
 62
     4
100
AcDbLine
 10
156.365266
 20
183.04553
 30
0.0
 11
156.365266
 21
195.712196
 31
0.0
  0
LINE
  5
87
100
AcDbEntity
  8
0
  6
Continuous
 62
     4
100
AcDbLine
 10
198.365261
 20
173.045536
 30
0.0
 11
195.410838
 21
172.524591
 31
0.0
  0
LINE
  5
88
100
AcDbEntity
  8
0
  6
Continuous
 62
     4
100
AcDbLine
 10
198.365261
 20
173.045536
 30
0.0
 11
195.410838
 21
173.56648
 31
0.0
  0
LINE
  5
89
100
AcDbEntity
  8
0
  6
Continuous
 62
     4
100
AcDbLine
 10
129.698595
 20
173.045536
 30
0.0
 11
132.653018
 21
173.56648
 31
0.0
  0
LINE
  5
8A
100
AcDbEntity
  8
0
  6
Continuous
 62
     4
100
AcDbLine
 10
129.698595
 20
173.045536
 30
0.0
 11
132.653018
 21
172.524591
 31
0.0
  0
LINE
  5
8B
100
AcDbEntity
  8
0
  6
Continuous
 62
     4
100
AcDbLine
 10
129.698595
 20
173.045536
 30
0.0
 11
198.365261
 21
173.045536
 31
0.0
  0
LINE
  5
8C
100
AcDbEntity
  8
0
  6
Continuous
 62
     4
100
AcDbLine
 10
202.365261
 20
163.045536
 30
0.0
 11
199.410838
 21
162.524591
 31
0.0
  0
LINE
  5
8D
100
AcDbEntity
  8
0
  6
Continuous
 62
     4
100
AcDbLine
 10
202.365261
 20
163.045536
 30
0.0
 11
199.410838
 21
163.56648
 31
0.0
  0
LINE
  5
8E
100
AcDbEntity
  8
0
  6
Continuous
 62
     4
100
AcDbLine
 10
125.698595
 20
163.045536
 30
0.0
 11
128.653018
 21
163.56648
 31
0.0
  0
LINE
  5
8F
100
AcDbEntity
  8
0
  6
Continuous
 62
     4
100
AcDbLine
 10
125.698595
 20
163.045536
 30
0.0
 11
128.653018
 21
162.524591
 31
0.0
  0
LINE
  5
90
100
AcDbEntity
  8
0
  6
Continuous
 62
     4
100
AcDbLine
 10
125.698595
 20
163.045536
 30
0.0
 11
202.365261
 21
163.045536
 31
0.0
  0
LINE
  5
91
100
AcDbEntity
  8
0
  6
Continuous
 62
     4
100
AcDbLine
 10
200.031931
 20
194.712196
 30
0.0
 11
196.698597
 21
194.712196
 31
0.0
  0
LINE
  5
92
100
AcDbEntity
  8
0
  6
Continuous
 62
     4
100
AcDbLine
 10
222.365261
 20
184.712196
 30
0.0
 11
221.844316
 21
187.666619
 31
0.0
  0
LINE
  5
93
100
AcDbEntity
  8
0
  6
Continuous
 62
     4
100
AcDbLine
 10
222.365261
 20
184.712196
 30
0.0
 11
222.886205
 21
187.666619
 31
0.0
  0
LINE
  5
94
100
AcDbEntity
  8
0
  6
Continuous
 62
     4
100
AcDbLine
 10
222.365261
 20
184.712196
 30
0.0
 11
222.365261
 21
192.199098
 31
0.0
  0
LINE
  5
95
100
AcDbEntity
  8
0
  6
Continuous
 62
     4
100
AcDbLine
 10
195.751791
 20
104.002484
 30
0.0
 11
198.049924
 21
105.930846
 31
0.0
  0
LINE
  5
96
100
AcDbEntity
  8
0
  6
Continuous
 62
     4
100
AcDbLine
 10
195.751791
 20
104.002484
 30
0.0
 11
198.570869
 21
105.028544
 31
0.0
  0
LINE
  5
97
100
AcDbEntity
  8
0
  6
Continuous
 62
     4
100
AcDbLine
 10
232.836891
 20
114.907239
 30
0.0
 11
214.639381
 21
114.907239
 31
0.0
  0
LINE
  5
98
100
AcDbEntity
  8
0
  6
Continuous
 62
     4
100
AcDbLine
 10
195.751791
 20
104.002484
 30
0.0
 11
214.639381
 21
114.907239
 31
0.0
  0
LINE
  5
99
100
AcDbEntity
  8
0
  6
Continuous
 62
     2
100
AcDbLine
 10
339.871171
 20
172.383056
 30
0.0
 11
247.371171
 21
172.383056
 31
0.0
  0
LINE
  5
9A
100
AcDbEntity
  8
0
  6
Continuous
 62
     2
100
AcDbLine
 10
339.871171
 20
167.383056
 30
0.0
 11
247.371171
 21
167.383056
 31
0.0
  0
LINE
  5
9B
100
AcDbEntity
  8
0
  6
Continuous
 62
     2
100
AcDbLine
 10
339.871171
 20
162.383056
 30
0.0
 11
247.371171
 21
162.383056
 31
0.0
  0
LINE
  5
9C
100
AcDbEntity
  8
0
  6
Continuous
 62
     2
100
AcDbLine
 10
339.871171
 20
157.383056
 30
0.0
 11
247.371171
 21
157.383056
 31
0.0
  0
LINE
  5
9D
100
AcDbEntity
  8
0
  6
Continuous
 62
     2
100
AcDbLine
 10
339.871171
 20
152.383056
 30
0.0
 11
247.371171
 21
152.383056
 31
0.0
  0
LINE
  5
9E
100
AcDbEntity
  8
0
  6
Continuous
 62
     2
100
AcDbLine
 10
339.871171
 20
147.383056
 30
0.0
 11
247.371171
 21
147.383056
 31
0.0
  0
LINE
  5
9F
100
AcDbEntity
  8
0
  6
Continuous
 62
     2
100
AcDbLine
 10
339.871171
 20
142.383056
 30
0.0
 11
247.371171
 21
142.383056
 31
0.0
  0
LINE
  5
A0
100
AcDbEntity
  8
0
  6
Continuous
 62
     2
100
AcDbLine
 10
339.871171
 20
137.383061
 30
0.0
 11
247.371171
 21
137.383061
 31
0.0
  0
LINE
  5
A1
100
AcDbEntity
  8
0
  6
Continuous
 62
     2
100
AcDbLine
 10
339.871171
 20
132.383061
 30
0.0
 11
247.371171
 21
132.383061
 31
0.0
  0
LINE
  5
A2
100
AcDbEntity
  8
0
  6
Continuous
 62
     2
100
AcDbLine
 10
339.871171
 20
127.383061
 30
0.0
 11
247.371171
 21
127.383061
 31
0.0
  0
LINE
  5
A3
100
AcDbEntity
  8
0
  6
Continuous
 62
     2
100
AcDbLine
 10
339.871171
 20
122.383061
 30
0.0
 11
247.371171
 21
122.383061
 31
0.0
  0
LINE
  5
A4
100
AcDbEntity
  8
0
  6
Continuous
 62
     2
100
AcDbLine
 10
339.871171
 20
117.383061
 30
0.0
 11
247.371171
 21
117.383061
 31
0.0
  0
LINE
  5
A5
100
AcDbEntity
  8
0
  6
Continuous
 62
     2
100
AcDbLine
 10
339.871171
 20
112.383061
 30
0.0
 11
247.371171
 21
112.383061
 31
0.0
  0
LINE
  5
A6
100
AcDbEntity
  8
0
  6
Continuous
 62
     2
100
AcDbLine
 10
339.871171
 20
107.383061
 30
0.0
 11
247.371171
 21
107.383061
 31
0.0
  0
CIRCLE
  5
A7
100
AcDbEntity
  8
0
  6
Continuous
 62
     2
100
AcDbCircle
 10
164.031933
 20
117.141281
 30
0.0
 40
38.333333
  0
CIRCLE
  5
A8
100
AcDbEntity
  8
0
  6
Continuous
 62
     2
100
AcDbCircle
 10
164.031933
 20
117.141281
 30
0.0
 40
27.666666
  0
CIRCLE
  5
A9
100
AcDbEntity
  8
0
  6
Continuous
 62
     2
100
AcDbCircle
 10
164.031933
 20
117.141281
 30
0.0
 40
29.333333
  0
CIRCLE
  5
AA
100
AcDbEntity
  8
0
  6
DASHDOT
 62
     4
100
AcDbCircle
 10
164.031933
 20
117.141281
 30
0.0
 40
34.333333
  0
CIRCLE
  5
AB
100
AcDbEntity
  8
0
  6
Continuous
 62
     2
100
AcDbCircle
 10
150.893135
 20
148.861136
 30
0.0
 40
1.666667
  0
CIRCLE
  5
AC
100
AcDbEntity
  8
0
  6
Continuous
 62
     2
100
AcDbCircle
 10
132.312069
 20
130.280079
 30
0.0
 40
1.666667
  0
CIRCLE
  5
AD
100
AcDbEntity
  8
0
  6
Continuous
 62
     2
100
AcDbCircle
 10
132.312069
 20
104.002484
 30
0.0
 40
1.666667
  0
CIRCLE
  5
AE
100
AcDbEntity
  8
0
  6
Continuous
 62
     2
100
AcDbCircle
 10
150.893135
 20
85.421418
 30
0.0
 40
1.666667
  0
CIRCLE
  5
AF
100
AcDbEntity
  8
0
  6
Continuous
 62
     2
100
AcDbCircle
 10
177.17073
 20
85.421418
 30
0.0
 40
1.666667
  0
CIRCLE
  5
B0
100
AcDbEntity
  8
0
  6
Continuous
 62
     2
100
AcDbCircle
 10
195.751791
 20
104.002484
 30
0.0
 40
1.666667
  0
CIRCLE
  5
B1
100
AcDbEntity
  8
0
  6
Continuous
 62
     2
100
AcDbCircle
 10
195.751791
 20
130.280079
 30
0.0
 40
1.666667
  0
CIRCLE
  5
B2
100
AcDbEntity
  8
0
  6
Continuous
 62
     2
100
AcDbCircle
 10
177.17073
 20
148.861136
 30
0.0
 40
1.666667
  0
ELLIPSE
  5
B3
100
AcDbEntity
  8
0
  6
Continuous
 62
     2
100
AcDbEllipse
 10
136.365266
 20
184.712196
 30
0.0
 11
0.0000000000000001
 21
1.6666666000000001
 31
0.0
210
0.0
220
0.0
230
1.0
 40
0.3
 41
4.7123889803846897
 42
1.5707963267948966
  0
ELLIPSE
  5
B4
100
AcDbEntity
  8
0
  6
Continuous
 62
     2
100
AcDbEllipse
 10
191.698591
 20
184.712196
 30
0.0
 11
0.0000000000000001
 21
1.6666666000000001
 31
0.0
210
0.0
220
0.0
230
1.0
 40
0.3
 41
1.5707963267948966
 42
4.7123889803846897
  0
TEXT
  5
B5
100
AcDbEntity
  8
0
 62
     7
100
AcDbText
 10
323.289581
 20
54.15891
 30
0.0
 40
3.0
  1
ダクト用ＴＳフランジ
 41
0.7695
  7
FontTableH_0
 72
     5
 11
353.289581
 21
54.15891
 31
0.0
100
AcDbText
  0
TEXT
  5
B6
100
AcDbEntity
  8
0
 62
     7
100
AcDbText
 10
323.358011
 20
61.407585
 30
0.0
 40
4.0
  1
東都積水株式会社
 41
0.7695
  7
FontTableH_0
 72
     5
 11
355.358011
 21
61.407585
 31
0.0
100
AcDbText
  0
TEXT
  5
B7
100
AcDbEntity
  8
0
 62
     7
100
AcDbText
 10
264.053661
 20
170.041856
 30
0.0
 40
2.0
  1
Ａ
 41
0.7695
  7
FontTableH_0
 72
     5
 11
266.053661
 21
170.041856
 31
0.0
100
AcDbText
  0
TEXT
  5
B8
100
AcDbEntity
  8
0
 62
     7
100
AcDbText
 10
274.053661
 20
170.041856
 30
0.0
 40
2.0
  1
Ｂ
 41
0.7695
  7
FontTableH_0
 72
     5
 11
276.053661
 21
170.041856
 31
0.0
100
AcDbText
  0
TEXT
  5
B9
100
AcDbEntity
  8
0
 62
     7
100
AcDbText
 10
284.053661
 20
170.041856
 30
0.0
 40
2.0
  1
Ｃ
 41
0.7695
  7
FontTableH_0
 72
     5
 11
286.053661
 21
170.041856
 31
0.0
100
AcDbText
  0
TEXT
  5
BA
100
AcDbEntity
  8
0
 62
     7
100
AcDbText
 10
294.053661
 20
170.041856
 30
0.0
 40
2.0
  1
Ｄ
 41
0.7695
  7
FontTableH_0
 72
     5
 11
296.053661
 21
170.041856
 31
0.0
100
AcDbText
  0
TEXT
  5
BB
100
AcDbEntity
  8
0
 62
     7
100
AcDbText
 10
262.053661
 20
167.541856
 30
0.0
 40
2.0
  1
外径φ
 41
0.7695
  7
FontTableH_0
 72
     5
 11
268.053661
 21
167.541856
 31
0.0
100
AcDbText
  0
TEXT
  5
BC
100
AcDbEntity
  8
0
 62
     7
100
AcDbText
 10
272.053661
 20
167.541856
 30
0.0
 40
2.0
  1
ＰＣＤ
 41
0.7695
  7
FontTableH_0
 72
     5
 11
278.053661
 21
167.541856
 31
0.0
100
AcDbText
  0
TEXT
  5
BD
100
AcDbEntity
  8
0
 62
     7
100
AcDbText
 10
282.303661
 20
167.541856
 30
0.0
 40
2.0
  1
内径φ
 41
0.7695
  7
FontTableH_0
 72
     5
 11
288.303661
 21
167.541856
 31
0.0
100
AcDbText
  0
TEXT
  5
BE
100
AcDbEntity
  8
0
 62
     7
100
AcDbText
 10
292.303661
 20
167.541856
 30
0.0
 40
2.0
  1
n-φh
 41
0.7695
  7
FontTableH_0
 72
     5
 11
299.178661
 21
167.541856
 31
0.0
100
AcDbText
  0
TEXT
  5
BF
100
AcDbEntity
  8
0
 62
     7
100
AcDbText
 10
323.053661
 20
167.541856
 30
0.0
 40
2.0
  1
肉厚
 41
0.7695
  7
FontTableH_0
 72
     5
 11
327.053661
 21
167.541856
 31
0.0
100
AcDbText
  0
TEXT
  5
C0
100
AcDbEntity
  8
0
 62
     7
100
AcDbText
 10
324.053661
 20
170.041856
 30
0.0
 40
2.0
  1
Ｔ
 41
0.7695
  7
FontTableH_0
 72
     5
 11
326.053661
 21
170.041856
 31
0.0
100
AcDbText
  0
TEXT
  5
C1
100
AcDbEntity
  8
0
 62
     7
100
AcDbText
 10
314.053661
 20
170.041856
 30
0.0
 40
2.0
  1
Ｈ
 41
0.7695
  7
FontTableH_0
 72
     5
 11
316.053661
 21
170.041856
 31
0.0
100
AcDbText
  0
TEXT
  5
C2
100
AcDbEntity
  8
0
 62
     7
100
AcDbText
 10
313.053661
 20
167.541856
 30
0.0
 40
2.0
  1
全高
 41
0.7695
  7
FontTableH_0
 72
     5
 11
317.053661
 21
167.541856
 31
0.0
100
AcDbText
  0
TEXT
  5
C3
100
AcDbEntity
  8
0
 62
     7
100
AcDbText
 10
304.053661
 20
170.041856
 30
0.0
 40
2.0
  1
Ｅ
 41
0.7695
  7
FontTableH_0
 72
     5
 11
306.053661
 21
170.041856
 31
0.0
100
AcDbText
  0
TEXT
  5
C4
100
AcDbEntity
  8
0
 62
     7
100
AcDbText
 10
250.393301
 20
168.671946
 30
0.0
 40
2.0
  1
呼び径
 41
0.7695
  7
FontTableH_0
 72
     5
 11
256.393301
 21
168.671946
 31
0.0
100
AcDbText
  0
TEXT
  5
C5
100
AcDbEntity
  8
0
 62
     7
100
AcDbText
 10
218.411361
 20
109.322133
 30
0.0
 40
4.0
  1
ｎ-φｈ
 41
0.7695
  7
FontTableH_0
 72
     5
 11
234.161361
 21
109.322133
 31
0.0
100
AcDbText
  0
TEXT
  5
C6
100
AcDbEntity
  8
0
 62
     7
100
AcDbText
 10
162.531925
 20
214.045536
 30
0.0
 40
4.0
  1
Ｃ
 41
0.7695
  7
FontTableH_0
 72
     5
 11
166.531925
 21
214.045536
 31
0.0
100
AcDbText
  0
TEXT
  5
C7
100
AcDbEntity
  8
0
 62
     7
100
AcDbText
 10
145.365266
 20
189.545532
 30
0.0
 40
4.0
  1
Ｅ
 50
90.0
 41
0.7695
  7
FontTableH_0
 72
     5
 11
145.365266
 21
193.545532
 31
0.0
100
AcDbText
  0
TEXT
  5
C8
100
AcDbEntity
  8
0
 62
     7
100
AcDbText
 10
155.365266
 20
187.878862
 30
0.0
 40
4.0
  1
Ｈ
 50
90.0
 41
0.7695
  7
FontTableH_0
 72
     5
 11
155.365266
 21
191.878862
 31
0.0
100
AcDbText
  0
TEXT
  5
C9
100
AcDbEntity
  8
0
 62
     7
100
AcDbText
 10
162.531928
 20
174.045536
 30
0.0
 40
4.0
  1
Ｂ
 41
0.7695
  7
FontTableH_0
 72
     5
 11
166.531928
 21
174.045536
 31
0.0
100
AcDbText
  0
TEXT
  5
CA
100
AcDbEntity
  8
0
 62
     7
100
AcDbText
 10
162.531928
 20
164.045536
 30
0.0
 40
4.0
  1
Ａ
 41
0.7695
  7
FontTableH_0
 72
     5
 11
166.531928
 21
164.045536
 31
0.0
100
AcDbText
  0
TEXT
  5
CB
100
AcDbEntity
  8
0
 62
     7
100
AcDbText
 10
196.865264
 20
195.712196
 30
0.0
 40
4.0
  1
Ｄ
 41
0.7695
  7
FontTableH_0
 72
     5
 11
200.865264
 21
195.712196
 31
0.0
100
AcDbText
  0
TEXT
  5
CC
100
AcDbEntity
  8
0
 62
     7
100
AcDbText
 10
221.365261
 20
188.199098
 30
0.0
 40
4.0
  1
Ｔ
 50
90.0
 41
0.7695
  7
FontTableH_0
 72
     5
 11
221.365261
 21
192.199098
 31
0.0
100
AcDbText
  0
TEXT
  5
CD
100
AcDbEntity
  8
0
 62
     7
100
AcDbText
 10
223.613487
 20
115.65192
 30
0.0
 40
4.0
  1
Ｄ
 41
0.7695
  7
FontTableH_0
 72
     5
 11
227.613487
 21
115.65192
 31
0.0
100
AcDbText
  0
TEXT
  5
CE
100
AcDbEntity
  8
0
 62
     7
100
AcDbText
 10
331.622291
 20
163.640066
 30
0.0
 40
2.5
  1
M8x30
 41
0.7695
  7
FontTableH_0
 72
     5
 11
337.872291
 21
163.640066
 31
0.0
100
AcDbText
  0
TEXT
  5
CF
100
AcDbEntity
  8
0
 62
     7
100
AcDbText
 10
331.382681
 20
158.608176
 30
0.0
 40
2.5
  1
M8x30
 41
0.7695
  7
FontTableH_0
 72
     5
 11
337.632681
 21
158.608176
 31
0.0
100
AcDbText
  0
TEXT
  5
D0
100
AcDbEntity
  8
0
 62
     7
100
AcDbText
 10
330.903451
 20
113.560835
 30
0.0
 40
2.5
  1
M12x35
 41
0.7695
  7
FontTableH_0
 72
     5
 11
338.403451
 21
113.560835
 31
0.0
100
AcDbText
  0
TEXT
  5
D1
100
AcDbEntity
  8
0
 62
     7
100
AcDbText
 10
331.023261
 20
118.832333
 30
0.0
 40
2.5
  1
M12x35
 41
0.7695
  7
FontTableH_0
 72
     5
 11
338.523261
 21
118.832333
 31
0.0
100
AcDbText
  0
TEXT
  5
D2
100
AcDbEntity
  8
0
 62
     7
100
AcDbText
 10
331.023261
 20
123.504798
 30
0.0
 40
2.5
  1
M12x35
 41
0.7695
  7
FontTableH_0
 72
     5
 11
338.523261
 21
123.504798
 31
0.0
100
AcDbText
  0
TEXT
  5
D3
100
AcDbEntity
  8
0
 62
     7
100
AcDbText
 10
330.903451
 20
128.776296
 30
0.0
 40
2.5
  1
M10x30
 41
0.7695
  7
FontTableH_0
 72
     5
 11
338.403451
 21
128.776296
 31
0.0
100
AcDbText
  0
TEXT
  5
D4
100
AcDbEntity
  8
0
 62
     7
100
AcDbText
 10
331.023261
 20
133.688373
 30
0.0
 40
2.5
  1
M10x30
 41
0.7695
  7
FontTableH_0
 72
     5
 11
338.523261
 21
133.688373
 31
0.0
100
AcDbText
  0
TEXT
  5
D5
100
AcDbEntity
  8
0
 62
     7
100
AcDbText
 10
331.502491
 20
138.360838
 30
0.0
 40
2.5
  1
M8x30
 41
0.7695
  7
FontTableH_0
 72
     5
 11
337.752491
 21
138.360838
 31
0.0
100
AcDbText
  0
TEXT
  5
D6
100
AcDbEntity
  8
0
 62
     7
100
AcDbText
 10
331.502491
 20
143.392716
 30
0.0
 40
2.5
  1
M8x30
 41
0.7695
  7
FontTableH_0
 72
     5
 11
337.752491
 21
143.392716
 31
0.0
100
AcDbText
  0
TEXT
  5
D7
100
AcDbEntity
  8
0
 62
     7
100
AcDbText
 10
331.622291
 20
148.304796
 30
0.0
 40
2.5
  1
M8x30
 41
0.7695
  7
FontTableH_0
 72
     5
 11
337.872291
 21
148.304796
 31
0.0
100
AcDbText
  0
TEXT
  5
D8
100
AcDbEntity
  8
0
 62
     7
100
AcDbText
 10
331.502491
 20
153.456486
 30
0.0
 40
2.5
  1
M8x30
 41
0.7695
  7
FontTableH_0
 72
     5
 11
337.752491
 21
153.456486
 31
0.0
100
AcDbText
  0
TEXT
  5
D9
100
AcDbEntity
  8
0
 62
     7
100
AcDbText
 10
301.553661
 20
167.541856
 30
0.0
 40
2.5
  1
ｽﾘｰﾌﾞ長
 41
0.7695
  7
FontTableH_0
 72
     5
 11
308.553661
 21
167.541856
 31
0.0
100
AcDbText
  0
TEXT
  5
DA
100
AcDbEntity
  8
0
 62
     7
100
AcDbText
 10
263.614741
 20
163.185256
 30
0.0
 40
3.0
  1
140
 41
0.7695
  7
FontTableH_0
 72
     5
 11
268.114741
 21
163.185256
 31
0.0
100
AcDbText
  0
TEXT
  5
DB
100
AcDbEntity
  8
0
 62
     7
100
AcDbText
 10
263.614741
 20
158.185256
 30
0.0
 40
3.0
  1
175
 41
0.7695
  7
FontTableH_0
 72
     5
 11
268.114741
 21
158.185256
 31
0.0
100
AcDbText
  0
TEXT
  5
DC
100
AcDbEntity
  8
0
 62
     7
100
AcDbText
 10
263.614741
 20
153.185256
 30
0.0
 40
3.0
  1
200
 41
0.7695
  7
FontTableH_0
 72
     5
 11
268.114741
 21
153.185256
 31
0.0
100
AcDbText
  0
TEXT
  5
DD
100
AcDbEntity
  8
0
 62
     7
100
AcDbText
 10
263.614741
 20
148.185256
 30
0.0
 40
3.0
  1
230
 41
0.7695
  7
FontTableH_0
 72
     5
 11
268.114741
 21
148.185256
 31
0.0
100
AcDbText
  0
TEXT
  5
DE
100
AcDbEntity
  8
0
 62
     7
100
AcDbText
 10
263.614741
 20
143.185256
 30
0.0
 40
3.0
  1
296
 41
0.7695
  7
FontTableH_0
 72
     5
 11
268.114741
 21
143.185256
 31
0.0
100
AcDbText
  0
TEXT
  5
DF
100
AcDbEntity
  8
0
 62
     7
100
AcDbText
 10
263.614741
 20
138.185265
 30
0.0
 40
3.0
  1
358
 41
0.7695
  7
FontTableH_0
 72
     5
 11
268.114741
 21
138.185265
 31
0.0
100
AcDbText
  0
TEXT
  5
E0
100
AcDbEntity
  8
0
 62
     7
100
AcDbText
 10
263.614741
 20
133.185265
 30
0.0
 40
3.0
  1
421
 41
0.7695
  7
FontTableH_0
 72
     5
 11
268.114741
 21
133.185265
 31
0.0
100
AcDbText
  0
TEXT
  5
E1
100
AcDbEntity
  8
0
 62
     7
100
AcDbText
 10
273.614741
 20
163.185256
 30
0.0
 40
3.0
  1
114
 41
0.7695
  7
FontTableH_0
 72
     5
 11
278.114741
 21
163.185256
 31
0.0
100
AcDbText
  0
TEXT
  5
E2
100
AcDbEntity
  8
0
 62
     7
100
AcDbText
 10
273.614741
 20
158.185256
 30
0.0
 40
3.0
  1
151
 41
0.7695
  7
FontTableH_0
 72
     5
 11
278.114741
 21
158.185256
 31
0.0
100
AcDbText
  0
TEXT
  5
E3
100
AcDbEntity
  8
0
 62
     7
100
AcDbText
 10
273.614741
 20
153.185256
 30
0.0
 40
3.0
  1
176
 41
0.7695
  7
FontTableH_0
 72
     5
 11
278.114741
 21
153.185256
 31
0.0
100
AcDbText
  0
TEXT
  5
E4
100
AcDbEntity
  8
0
 62
     7
100
AcDbText
 10
273.614741
 20
148.185256
 30
0.0
 40
3.0
  1
206
 41
0.7695
  7
FontTableH_0
 72
     5
 11
278.114741
 21
148.185256
 31
0.0
100
AcDbText
  0
TEXT
  5
E5
100
AcDbEntity
  8
0
 62
     7
100
AcDbText
 10
273.614741
 20
143.185256
 30
0.0
 40
3.0
  1
264
 41
0.7695
  7
FontTableH_0
 72
     5
 11
278.114741
 21
143.185256
 31
0.0
100
AcDbText
  0
TEXT
  5
E6
100
AcDbEntity
  8
0
 62
     7
100
AcDbText
 10
273.614741
 20
138.185265
 30
0.0
 40
3.0
  1
322
 41
0.7695
  7
FontTableH_0
 72
     5
 11
278.114741
 21
138.185265
 31
0.0
100
AcDbText
  0
TEXT
  5
E7
100
AcDbEntity
  8
0
 62
     7
100
AcDbText
 10
273.614741
 20
133.185265
 30
0.0
 40
3.0
  1
382
 41
0.7695
  7
FontTableH_0
 72
     5
 11
278.114741
 21
133.185265
 31
0.0
100
AcDbText
  0
TEXT
  5
E8
100
AcDbEntity
  8
0
 62
     7
100
AcDbText
 10
283.614741
 20
163.185256
 30
0.0
 40
3.0
  1
89
 41
0.7695
  7
FontTableH_0
 72
     5
 11
286.614741
 21
163.185256
 31
0.0
100
AcDbText
  0
TEXT
  5
E9
100
AcDbEntity
  8
0
 62
     7
100
AcDbText
 10
324.614741
 20
163.185256
 30
0.0
 40
3.0
  1
5
 41
0.7695
  7
FontTableH_0
 72
     5
 11
326.114741
 21
163.185256
 31
0.0
100
AcDbText
  0
TEXT
  5
EA
100
AcDbEntity
  8
0
 62
     7
100
AcDbText
 10
324.614741
 20
158.185256
 30
0.0
 40
3.0
  1
5
 41
0.7695
  7
FontTableH_0
 72
     5
 11
326.114741
 21
158.185256
 31
0.0
100
AcDbText
  0
TEXT
  5
EB
100
AcDbEntity
  8
0
 62
     7
100
AcDbText
 10
324.614741
 20
153.185256
 30
0.0
 40
3.0
  1
5
 41
0.7695
  7
FontTableH_0
 72
     5
 11
326.114741
 21
153.185256
 31
0.0
100
AcDbText
  0
TEXT
  5
EC
100
AcDbEntity
  8
0
 62
     7
100
AcDbText
 10
324.614741
 20
148.185256
 30
0.0
 40
3.0
  1
5
 41
0.7695
  7
FontTableH_0
 72
     5
 11
326.114741
 21
148.185256
 31
0.0
100
AcDbText
  0
TEXT
  5
ED
100
AcDbEntity
  8
0
 62
     7
100
AcDbText
 10
324.614741
 20
143.185256
 30
0.0
 40
3.0
  1
5
 41
0.7695
  7
FontTableH_0
 72
     5
 11
326.114741
 21
143.185256
 31
0.0
100
AcDbText
  0
TEXT
  5
EE
100
AcDbEntity
  8
0
 62
     7
100
AcDbText
 10
324.614741
 20
138.185265
 30
0.0
 40
3.0
  1
5
 41
0.7695
  7
FontTableH_0
 72
     5
 11
326.114741
 21
138.185265
 31
0.0
100
AcDbText
  0
TEXT
  5
EF
100
AcDbEntity
  8
0
 62
     7
100
AcDbText
 10
263.614741
 20
128.185265
 30
0.0
 40
3.0
  1
470
 41
0.7695
  7
FontTableH_0
 72
     5
 11
268.114741
 21
128.185265
 31
0.0
100
AcDbText
  0
TEXT
  5
F0
100
AcDbEntity
  8
0
 62
     7
100
AcDbText
 10
263.614741
 20
123.185265
 30
0.0
 40
3.0
  1
520
 41
0.7695
  7
FontTableH_0
 72
     5
 11
268.114741
 21
123.185265
 31
0.0
100
AcDbText
  0
TEXT
  5
F1
100
AcDbEntity
  8
0
 62
     7
100
AcDbText
 10
263.614741
 20
118.185265
 30
0.0
 40
3.0
  1
590
 41
0.7695
  7
FontTableH_0
 72
     5
 11
268.114741
 21
118.185265
 31
0.0
100
AcDbText
  0
TEXT
  5
F2
100
AcDbEntity
  8
0
 62
     7
100
AcDbText
 10
263.614741
 20
113.185265
 30
0.0
 40
3.0
  1
640
 41
0.7695
  7
FontTableH_0
 72
     5
 11
268.114741
 21
113.185265
 31
0.0
100
AcDbText
  0
TEXT
  5
F3
100
AcDbEntity
  8
0
 62
     7
100
AcDbText
 10
263.614741
 20
108.185265
 30
0.0
 40
3.0
  1
712
 41
0.7695
  7
FontTableH_0
 72
     5
 11
268.114741
 21
108.185265
 31
0.0
100
AcDbText
  0
TEXT
  5
F4
100
AcDbEntity
  8
0
 62
     7
100
AcDbText
 10
273.614741
 20
128.185265
 30
0.0
 40
3.0
  1
432
 41
0.7695
  7
FontTableH_0
 72
     5
 11
278.114741
 21
128.185265
 31
0.0
100
AcDbText
  0
TEXT
  5
F5
100
AcDbEntity
  8
0
 62
     7
100
AcDbText
 10
273.614741
 20
123.185265
 30
0.0
 40
3.0
  1
482
 41
0.7695
  7
FontTableH_0
 72
     5
 11
278.114741
 21
123.185265
 31
0.0
100
AcDbText
  0
TEXT
  5
F6
100
AcDbEntity
  8
0
 62
     7
100
AcDbText
 10
273.614741
 20
118.185265
 30
0.0
 40
3.0
  1
540
 41
0.7695
  7
FontTableH_0
 72
     5
 11
278.114741
 21
118.185265
 31
0.0
100
AcDbText
  0
TEXT
  5
F7
100
AcDbEntity
  8
0
 62
     7
100
AcDbText
 10
273.614741
 20
113.185265
 30
0.0
 40
3.0
  1
590
 41
0.7695
  7
FontTableH_0
 72
     5
 11
278.114741
 21
113.185265
 31
0.0
100
AcDbText
  0
TEXT
  5
F8
100
AcDbEntity
  8
0
 62
     7
100
AcDbText
 10
273.614741
 20
108.185265
 30
0.0
 40
3.0
  1
672
 41
0.7695
  7
FontTableH_0
 72
     5
 11
278.114741
 21
108.185265
 31
0.0
100
AcDbText
  0
TEXT
  5
F9
100
AcDbEntity
  8
0
 62
     7
100
AcDbText
 10
314.114741
 20
163.185256
 30
0.0
 40
3.0
  1
26
 41
0.7695
  7
FontTableH_0
 72
     5
 11
317.114741
 21
163.185256
 31
0.0
100
AcDbText
  0
TEXT
  5
FA
100
AcDbEntity
  8
0
 62
     7
100
AcDbText
 10
314.114741
 20
158.185256
 30
0.0
 40
3.0
  1
33
 41
0.7695
  7
FontTableH_0
 72
     5
 11
317.114741
 21
158.185256
 31
0.0
100
AcDbText
  0
TEXT
  5
FB
100
AcDbEntity
  8
0
 62
     7
100
AcDbText
 10
314.114741
 20
153.185256
 30
0.0
 40
3.0
  1
35
 41
0.7695
  7
FontTableH_0
 72
     5
 11
317.114741
 21
153.185256
 31
0.0
100
AcDbText
  0
TEXT
  5
FC
100
AcDbEntity
  8
0
 62
     7
100
AcDbText
 10
314.114741
 20
148.185256
 30
0.0
 40
3.0
  1
38
 41
0.7695
  7
FontTableH_0
 72
     5
 11
317.114741
 21
148.185256
 31
0.0
100
AcDbText
  0
TEXT
  5
FD
100
AcDbEntity
  8
0
 62
     7
100
AcDbText
 10
314.114741
 20
143.185256
 30
0.0
 40
3.0
  1
42
 41
0.7695
  7
FontTableH_0
 72
     5
 11
317.114741
 21
143.185256
 31
0.0
100
AcDbText
  0
TEXT
  5
FE
100
AcDbEntity
  8
0
 62
     7
100
AcDbText
 10
314.114741
 20
138.185265
 30
0.0
 40
3.0
  1
43
 41
0.7695
  7
FontTableH_0
 72
     5
 11
317.114741
 21
138.185265
 31
0.0
100
AcDbText
  0
TEXT
  5
FF
100
AcDbEntity
  8
0
 62
     7
100
AcDbText
 10
314.114741
 20
123.185265
 30
0.0
 40
3.0
  1
52
 41
0.7695
  7
FontTableH_0
 72
     5
 11
317.114741
 21
123.185265
 31
0.0
100
AcDbText
  0
TEXT
  5
100
100
AcDbEntity
  8
0
 62
     7
100
AcDbText
 10
314.114741
 20
118.185265
 30
0.0
 40
3.0
  1
55
 41
0.7695
  7
FontTableH_0
 72
     5
 11
317.114741
 21
118.185265
 31
0.0
100
AcDbText
  0
TEXT
  5
101
100
AcDbEntity
  8
0
 62
     7
100
AcDbText
 10
314.114741
 20
113.185265
 30
0.0
 40
3.0
  1
59
 41
0.7695
  7
FontTableH_0
 72
     5
 11
317.114741
 21
113.185265
 31
0.0
100
AcDbText
  0
TEXT
  5
102
100
AcDbEntity
  8
0
 62
     7
100
AcDbText
 10
314.114741
 20
108.185265
 30
0.0
 40
3.0
  1
50
 41
0.7695
  7
FontTableH_0
 72
     5
 11
317.114741
 21
108.185265
 31
0.0
100
AcDbText
  0
TEXT
  5
103
100
AcDbEntity
  8
0
 62
     7
100
AcDbText
 10
304.114741
 20
163.185256
 30
0.0
 40
3.0
  1
16
 41
0.7695
  7
FontTableH_0
 72
     5
 11
307.114741
 21
163.185256
 31
0.0
100
AcDbText
  0
TEXT
  5
104
100
AcDbEntity
  8
0
 62
     7
100
AcDbText
 10
304.114741
 20
158.185256
 30
0.0
 40
3.0
  1
24
 41
0.7695
  7
FontTableH_0
 72
     5
 11
307.114741
 21
158.185256
 31
0.0
100
AcDbText
  0
TEXT
  5
105
100
AcDbEntity
  8
0
 62
     7
100
AcDbText
 10
304.114741
 20
153.185256
 30
0.0
 40
3.0
  1
25
 41
0.7695
  7
FontTableH_0
 72
     5
 11
307.114741
 21
153.185256
 31
0.0
100
AcDbText
  0
TEXT
  5
106
100
AcDbEntity
  8
0
 62
     7
100
AcDbText
 10
304.114741
 20
113.185265
 30
0.0
 40
3.0
  1
43
 41
0.7695
  7
FontTableH_0
 72
     5
 11
307.114741
 21
113.185265
 31
0.0
100
AcDbText
  0
TEXT
  5
107
100
AcDbEntity
  8
0
 62
     7
100
AcDbText
 10
304.114741
 20
108.185265
 30
0.0
 40
3.0
  1
50
 41
0.7695
  7
FontTableH_0
 72
     5
 11
307.114741
 21
108.185265
 31
0.0
100
AcDbText
  0
TEXT
  5
108
100
AcDbEntity
  8
0
 62
     7
100
AcDbText
 10
324.614741
 20
113.185265
 30
0.0
 40
3.0
  1
6
 41
0.7695
  7
FontTableH_0
 72
     5
 11
326.114741
 21
113.185265
 31
0.0
100
AcDbText
  0
TEXT
  5
109
100
AcDbEntity
  8
0
 62
     7
100
AcDbText
 10
324.614741
 20
108.185265
 30
0.0
 40
3.0
  1
6
 41
0.7695
  7
FontTableH_0
 72
     5
 11
326.114741
 21
108.185265
 31
0.0
100
AcDbText
  0
TEXT
  5
10A
100
AcDbEntity
  8
0
 62
     7
100
AcDbText
 10
324.614741
 20
118.185265
 30
0.0
 40
3.0
  1
6
 41
0.7695
  7
FontTableH_0
 72
     5
 11
326.114741
 21
118.185265
 31
0.0
100
AcDbText
  0
TEXT
  5
10B
100
AcDbEntity
  8
0
 62
     7
100
AcDbText
 10
282.537221
 20
158.138946
 30
0.0
 40
3.0
  1
115
 41
0.7695
  7
FontTableH_0
 72
     5
 11
287.037221
 21
158.138946
 31
0.0
100
AcDbText
  0
TEXT
  5
10C
100
AcDbEntity
  8
0
 62
     7
100
AcDbText
 10
282.537221
 20
153.138946
 30
0.0
 40
3.0
  1
141
 41
0.7695
  7
FontTableH_0
 72
     5
 11
287.037221
 21
153.138946
 31
0.0
100
AcDbText
  0
TEXT
  5
10D
100
AcDbEntity
  8
0
 62
     7
100
AcDbText
 10
282.537221
 20
148.138946
 30
0.0
 40
3.0
  1
166
 41
0.7695
  7
FontTableH_0
 72
     5
 11
287.037221
 21
148.138946
 31
0.0
100
AcDbText
  0
TEXT
  5
10E
100
AcDbEntity
  8
0
 62
     7
100
AcDbText
 10
282.537221
 20
143.138946
 30
0.0
 40
3.0
  1
217
 41
0.7695
  7
FontTableH_0
 72
     5
 11
287.037221
 21
143.138946
 31
0.0
100
AcDbText
  0
TEXT
  5
10F
100
AcDbEntity
  8
0
 62
     7
100
AcDbText
 10
282.537221
 20
138.138952
 30
0.0
 40
3.0
  1
268
 41
0.7695
  7
FontTableH_0
 72
     5
 11
287.037221
 21
138.138952
 31
0.0
100
AcDbText
  0
TEXT
  5
110
100
AcDbEntity
  8
0
 62
     7
100
AcDbText
 10
282.537221
 20
133.138952
 30
0.0
 40
3.0
  1
319
 41
0.7695
  7
FontTableH_0
 72
     5
 11
287.037221
 21
133.138952
 31
0.0
100
AcDbText
  0
TEXT
  5
111
100
AcDbEntity
  8
0
 62
     7
100
AcDbText
 10
282.537221
 20
128.138952
 30
0.0
 40
3.0
  1
371
 41
0.7695
  7
FontTableH_0
 72
     5
 11
287.037221
 21
128.138952
 31
0.0
100
AcDbText
  0
TEXT
  5
112
100
AcDbEntity
  8
0
 62
     7
100
AcDbText
 10
282.537221
 20
123.138952
 30
0.0
 40
3.0
  1
421
 41
0.7695
  7
FontTableH_0
 72
     5
 11
287.037221
 21
123.138952
 31
0.0
100
AcDbText
  0
TEXT
  5
113
100
AcDbEntity
  8
0
 62
     7
100
AcDbText
 10
282.537221
 20
118.138952
 30
0.0
 40
3.0
  1
471
 41
0.7695
  7
FontTableH_0
 72
     5
 11
287.037221
 21
118.138952
 31
0.0
100
AcDbText
  0
TEXT
  5
114
100
AcDbEntity
  8
0
 62
     7
100
AcDbText
 10
282.537221
 20
113.138952
 30
0.0
 40
3.0
  1
521
 41
0.7695
  7
FontTableH_0
 72
     5
 11
287.037221
 21
113.138952
 31
0.0
100
AcDbText
  0
TEXT
  5
115
100
AcDbEntity
  8
0
 62
     7
100
AcDbText
 10
282.537221
 20
108.138952
 30
0.0
 40
3.0
  1
613
 41
0.7695
  7
FontTableH_0
 72
     5
 11
287.037221
 21
108.138952
 31
0.0
100
AcDbText
  0
TEXT
  5
116
100
AcDbEntity
  8
0
 62
     7
100
AcDbText
 10
290.568381
 20
113.381153
 30
0.0
 40
3.0
  1
24x14
 41
0.7695
  7
FontTableH_0
 72
     5
 11
298.068381
 21
113.381153
 31
0.0
100
AcDbText
  0
TEXT
  5
117
100
AcDbEntity
  8
0
 62
     7
100
AcDbText
 10
290.568381
 20
118.381153
 30
0.0
 40
3.0
  1
24x14
 41
0.7695
  7
FontTableH_0
 72
     5
 11
298.068381
 21
118.381153
 31
0.0
100
AcDbText
  0
TEXT
  5
118
100
AcDbEntity
  8
0
 62
     7
100
AcDbText
 10
290.568381
 20
123.381153
 30
0.0
 40
3.0
  1
20x14
 41
0.7695
  7
FontTableH_0
 72
     5
 11
298.068381
 21
123.381153
 31
0.0
100
AcDbText
  0
TEXT
  5
119
100
AcDbEntity
  8
0
 62
     7
100
AcDbText
 10
290.568381
 20
128.381153
 30
0.0
 40
3.0
  1
16x12
 41
0.7695
  7
FontTableH_0
 72
     5
 11
298.068381
 21
128.381153
 31
0.0
100
AcDbText
  0
TEXT
  5
11A
100
AcDbEntity
  8
0
 62
     7
100
AcDbText
 10
290.568381
 20
133.381153
 30
0.0
 40
3.0
  1
16x12
 41
0.7695
  7
FontTableH_0
 72
     5
 11
298.068381
 21
133.381153
 31
0.0
100
AcDbText
  0
TEXT
  5
11B
100
AcDbEntity
  8
0
 62
     7
100
AcDbText
 10
290.568381
 20
138.381153
 30
0.0
 40
3.0
  1
12x10
 41
0.7695
  7
FontTableH_0
 72
     5
 11
298.068381
 21
138.381153
 31
0.0
100
AcDbText
  0
TEXT
  5
11C
100
AcDbEntity
  8
0
 62
     7
100
AcDbText
 10
290.568381
 20
143.381146
 30
0.0
 40
3.0
  1
12x10
 41
0.7695
  7
FontTableH_0
 72
     5
 11
298.068381
 21
143.381146
 31
0.0
100
AcDbText
  0
TEXT
  5
11D
100
AcDbEntity
  8
0
 62
     7
100
AcDbText
 10
291.568381
 20
148.381146
 30
0.0
 40
3.0
  1
8x10
 41
0.7695
  7
FontTableH_0
 72
     5
 11
297.568381
 21
148.381146
 31
0.0
100
AcDbText
  0
TEXT
  5
11E
100
AcDbEntity
  8
0
 62
     7
100
AcDbText
 10
291.568381
 20
153.381146
 30
0.0
 40
3.0
  1
8x10
 41
0.7695
  7
FontTableH_0
 72
     5
 11
297.568381
 21
153.381146
 31
0.0
100
AcDbText
  0
TEXT
  5
11F
100
AcDbEntity
  8
0
 62
     7
100
AcDbText
 10
291.568381
 20
158.381146
 30
0.0
 40
3.0
  1
8x10
 41
0.7695
  7
FontTableH_0
 72
     5
 11
297.568381
 21
158.381146
 31
0.0
100
AcDbText
  0
TEXT
  5
120
100
AcDbEntity
  8
0
 62
     7
100
AcDbText
 10
291.568381
 20
163.381146
 30
0.0
 40
3.0
  1
4x10
 41
0.7695
  7
FontTableH_0
 72
     5
 11
297.568381
 21
163.381146
 31
0.0
100
AcDbText
  0
TEXT
  5
121
100
AcDbEntity
  8
0
 62
     7
100
AcDbText
 10
332.940171
 20
167.473876
 30
0.0
 40
2.0
  1
ﾅｯﾄ
 41
0.7695
  7
FontTableH_0
 72
     5
 11
335.940171
 21
167.473876
 31
0.0
100
AcDbText
  0
TEXT
  5
122
100
AcDbEntity
  8
0
 62
     7
100
AcDbText
 10
331.14459
 20
169.749777
 30
0.0
 40
2.0
  1
接合ﾎﾞﾙﾄ
 41
0.7695
  7
FontTableH_0
 72
     5
 11
339.14459
 21
169.749777
 31
0.0
100
AcDbText
  0
TEXT
  5
123
100
AcDbEntity
  8
0
 62
     7
100
AcDbText
 10
250.835571
 20
163.376606
 30
0.0
 40
3.0
  1
75A
 41
0.7695
  7
FontTableH_0
 72
     5
 11
255.335571
 21
163.376606
 31
0.0
100
AcDbText
  0
TEXT
  5
124
100
AcDbEntity
  8
0
 62
     7
100
AcDbText
 10
250.035571
 20
158.376606
 30
0.0
 40
3.0
  1
100A
 41
0.7695
  7
FontTableH_0
 72
     5
 11
256.035571
 21
158.376606
 31
0.0
100
AcDbText
  0
TEXT
  5
125
100
AcDbEntity
  8
0
 62
     7
100
AcDbText
 10
250.035571
 20
153.376606
 30
0.0
 40
3.0
  1
125A
 41
0.7695
  7
FontTableH_0
 72
     5
 11
256.035571
 21
153.376606
 31
0.0
100
AcDbText
  0
TEXT
  5
126
100
AcDbEntity
  8
0
 62
     7
100
AcDbText
 10
250.035571
 20
148.376606
 30
0.0
 40
3.0
  1
150A
 41
0.7695
  7
FontTableH_0
 72
     5
 11
256.035571
 21
148.376606
 31
0.0
100
AcDbText
  0
TEXT
  5
127
100
AcDbEntity
  8
0
 62
     7
100
AcDbText
 10
250.035571
 20
143.376606
 30
0.0
 40
3.0
  1
200A
 41
0.7695
  7
FontTableH_0
 72
     5
 11
256.035571
 21
143.376606
 31
0.0
100
AcDbText
  0
TEXT
  5
128
100
AcDbEntity
  8
0
 62
     7
100
AcDbText
 10
250.035571
 20
138.376615
 30
0.0
 40
3.0
  1
250A
 41
0.7695
  7
FontTableH_0
 72
     5
 11
256.035571
 21
138.376615
 31
0.0
100
AcDbText
  0
TEXT
  5
129
100
AcDbEntity
  8
0
 62
     7
100
AcDbText
 10
250.035571
 20
133.376615
 30
0.0
 40
3.0
  1
300A
 41
0.7695
  7
FontTableH_0
 72
     5
 11
256.035571
 21
133.376615
 31
0.0
100
AcDbText
  0
TEXT
  5
12A
100
AcDbEntity
  8
0
 62
     7
100
AcDbText
 10
250.035571
 20
128.376615
 30
0.0
 40
3.0
  1
350A
 41
0.7695
  7
FontTableH_0
 72
     5
 11
256.035571
 21
128.376615
 31
0.0
100
AcDbText
  0
TEXT
  5
12B
100
AcDbEntity
  8
0
 62
     7
100
AcDbText
 10
250.035571
 20
123.376615
 30
0.0
 40
3.0
  1
400A
 41
0.7695
  7
FontTableH_0
 72
     5
 11
256.035571
 21
123.376615
 31
0.0
100
AcDbText
  0
TEXT
  5
12C
100
AcDbEntity
  8
0
 62
     7
100
AcDbText
 10
250.035571
 20
118.376615
 30
0.0
 40
3.0
  1
450A
 41
0.7695
  7
FontTableH_0
 72
     5
 11
256.035571
 21
118.376615
 31
0.0
100
AcDbText
  0
TEXT
  5
12D
100
AcDbEntity
  8
0
 62
     7
100
AcDbText
 10
250.035571
 20
113.376615
 30
0.0
 40
3.0
  1
500A
 41
0.7695
  7
FontTableH_0
 72
     5
 11
256.035571
 21
113.376615
 31
0.0
100
AcDbText
  0
TEXT
  5
12E
100
AcDbEntity
  8
0
 62
     7
100
AcDbText
 10
250.035571
 20
108.376615
 30
0.0
 40
3.0
  1
600A
 41
0.7695
  7
FontTableH_0
 72
     5
 11
256.035571
 21
108.376615
 31
0.0
100
AcDbText
  0
TEXT
  5
12F
100
AcDbEntity
  8
0
 62
     7
100
AcDbText
 10
304.114741
 20
148.185256
 30
0.0
 40
3.0
  1
27
 41
0.7695
  7
FontTableH_0
 72
     5
 11
307.114741
 21
148.185256
 31
0.0
100
AcDbText
  0
TEXT
  5
130
100
AcDbEntity
  8
0
 62
     7
100
AcDbText
 10
304.114741
 20
143.185256
 30
0.0
 40
3.0
  1
31
 41
0.7695
  7
FontTableH_0
 72
     5
 11
307.114741
 21
143.185256
 31
0.0
100
AcDbText
  0
TEXT
  5
131
100
AcDbEntity
  8
0
 62
     7
100
AcDbText
 10
304.114741
 20
138.185265
 30
0.0
 40
3.0
  1
32
 41
0.7695
  7
FontTableH_0
 72
     5
 11
307.114741
 21
138.185265
 31
0.0
100
AcDbText
  0
TEXT
  5
132
100
AcDbEntity
  8
0
 62
     7
100
AcDbText
 10
304.114741
 20
133.185265
 30
0.0
 40
3.0
  1
33
 41
0.7695
  7
FontTableH_0
 72
     5
 11
307.114741
 21
133.185265
 31
0.0
100
AcDbText
  0
TEXT
  5
133
100
AcDbEntity
  8
0
 62
     7
100
AcDbText
 10
304.114741
 20
128.185265
 30
0.0
 40
3.0
  1
40
 41
0.7695
  7
FontTableH_0
 72
     5
 11
307.114741
 21
128.185265
 31
0.0
100
AcDbText
  0
TEXT
  5
134
100
AcDbEntity
  8
0
 62
     7
100
AcDbText
 10
304.114741
 20
123.185265
 30
0.0
 40
3.0
  1
41
 41
0.7695
  7
FontTableH_0
 72
     5
 11
307.114741
 21
123.185265
 31
0.0
100
AcDbText
  0
TEXT
  5
135
100
AcDbEntity
  8
0
 62
     7
100
AcDbText
 10
304.114741
 20
118.185265
 30
0.0
 40
3.0
  1
44
 41
0.7695
  7
FontTableH_0
 72
     5
 11
307.114741
 21
118.185265
 31
0.0
100
AcDbText
  0
TEXT
  5
136
100
AcDbEntity
  8
0
 62
     7
100
AcDbText
 10
314.114741
 20
133.185265
 30
0.0
 40
3.0
  1
44
 41
0.7695
  7
FontTableH_0
 72
     5
 11
317.114741
 21
133.185265
 31
0.0
100
AcDbText
  0
TEXT
  5
137
100
AcDbEntity
  8
0
 62
     7
100
AcDbText
 10
314.114741
 20
128.185265
 30
0.0
 40
3.0
  1
51
 41
0.7695
  7
FontTableH_0
 72
     5
 11
317.114741
 21
128.185265
 31
0.0
100
AcDbText
  0
TEXT
  5
138
100
AcDbEntity
  8
0
 62
     7
100
AcDbText
 10
323.381054
 20
133.185265
 30
0.0
 40
3.0
  1
5.5
 41
0.7695
  7
FontTableH_0
 72
     5
 11
327.881054
 21
133.185265
 31
0.0
100
AcDbText
  0
TEXT
  5
139
100
AcDbEntity
  8
0
 62
     7
100
AcDbText
 10
323.381054
 20
128.185265
 30
0.0
 40
3.0
  1
5.5
 41
0.7695
  7
FontTableH_0
 72
     5
 11
327.881054
 21
128.185265
 31
0.0
100
AcDbText
  0
TEXT
  5
13A
100
AcDbEntity
  8
0
 62
     7
100
AcDbText
 10
323.381054
 20
123.185265
 30
0.0
 40
3.0
  1
5.5
 41
0.7695
  7
FontTableH_0
 72
     5
 11
327.881054
 21
123.185265
 31
0.0
100
AcDbText
  0
TEXT
  5
13B
100
AcDbEntity
  8
0
 62
     7
100
AcDbText
 10
290.568381
 20
108.381153
 30
0.0
 40
3.0
  1
24x12
 41
0.7695
  7
FontTableH_0
 72
     5
 11
298.068381
 21
108.381153
 31
0.0
100
AcDbText
  0
TEXT
  5
13C
100
AcDbEntity
  8
0
 62
     7
100
AcDbText
 10
331.023261
 20
108.888371
 30
0.0
 40
2.5
  1
M10x30
 41
0.7695
  7
FontTableH_0
 72
     5
 11
338.523261
 21
108.888371
 31
0.0
100
AcDbText
  0
ENDSEC
  0
SECTION
  2
OBJECTS
  0
DICTIONARY
  5
19
100
AcDbDictionary
  3
ACAD_GROUP
350
1A
  3
ACAD_MLINESTYLE
350
1B
  3
DWGPROPS
350
13D
  0
DICTIONARY
  5
1A
102
{ACAD_REACTORS
330
19
102
}
100
AcDbDictionary
  0
DICTIONARY
  5
1B
102
{ACAD_REACTORS
330
19
102
}
100
AcDbDictionary
  3
STANDARD
350
1C
  0
MLINESTYLE
  5
1C
102
{ACAD_REACTORS
330
1B
102
}
100
AcDbMlineStyle
  2
Standard
 70
     0
  3

 62
     0
 51
90.0
 52
90.0
 71
     2
 49
0.5
 62
   256
  6
ByLayer
 49
-0.5
 62
   256
  6
ByLayer
  0
XRECORD
  5
13D
100
AcDbXrecord
  1
DWGPROPS COOKIE
  2

  3

  4

  6

  7

  0
ENDSEC
  0
EOF
